  0
SECTION
  2
HEADER
  9
$ACADVER
  1
AC1015
  9
$HANDSEED
  5
226
  9
$LIMMIN
 10
389646.568
 20
5548275.626
  9
$LIMMAX
 10
390142.827
 20
5548738.113
  9
$MEASUREMENT
 70
1
  0
ENDSEC
  0
SECTION
  2
TABLES
  0
TABLE
  2
VPORT
  5
  1
100
AcDbSymbolTable
  0
ENDTAB
  0
TABLE
  2
LTYPE
  5
  2
100
AcDbSymbolTable
  0
LTYPE
  5
  3
100
AcDbSymbolTableRecord
100
AcDbLinetypeTableRecord
  2
BYBLOCK
 70
     0
  0
LTYPE
  5
  4
100
AcDbSymbolTableRecord
100
AcDbLinetypeTableRecord
  2
BYLAYER
 70
     0
  0
LTYPE
  5
20
100
AcDbSymbolTableRecord
100
AcDbLinetypeTableRecord
  2
_SOLID
  3

 70
0
 72
65
 73
2
 40
5
 49
5
 74
0
 49
0
 74
0
  0
LTYPE
  5
21
100
AcDbSymbolTableRecord
100
AcDbLinetypeTableRecord
  2
_DASH
  3

 70
0
 72
65
 73
2
 40
7
 49
5
 74
0
 49
-2
 74
0
  0
LTYPE
  5
22
100
AcDbSymbolTableRecord
100
AcDbLinetypeTableRecord
  2
_DOT
  3

 70
0
 72
65
 73
2
 40
4
 49
2
 74
0
 49
-2
 74
0
  0
LTYPE
  5
23
100
AcDbSymbolTableRecord
100
AcDbLinetypeTableRecord
  2
_DASHDOT
  3

 70
0
 72
65
 73
4
 40
11
 49
5
 74
0
 49
-2
 74
0
 49
2
 74
0
 49
-2
 74
0
  0
LTYPE
  5
24
100
AcDbSymbolTableRecord
100
AcDbLinetypeTableRecord
  2
_DASHDOTDOT
  3

 70
0
 72
65
 73
6
 40
15
 49
5
 74
0
 49
-2
 74
0
 49
2
 74
0
 49
-2
 74
0
 49
2
 74
0
 49
-2
 74
0
  0
LTYPE
  5
25
100
AcDbSymbolTableRecord
100
AcDbLinetypeTableRecord
  2
ACADISO06W100
  3

 70
0
 72
65
 73
8
 40
36
 49
24
 74
0
 49
-3
 74
0
 49
0
 74
0
 49
-3
 74
0
 49
0
 74
0
 49
-3
 74
0
 49
0
 74
0
 49
-3
 74
0
  0
ENDTAB
  0
TABLE
  2
LAYER
  5
 1A
330
  0
100
AcDbSymbolTable
  0
LAYER
  5
1F8
330
 1A
100
AcDbSymbolTableRecord
100
AcDbLayerTableRecord
  2
0
 70
0
 62
7
  6
Continuous
370
-3
390
 19
  0
LAYER
  5
1F9
330
 1A
100
AcDbSymbolTableRecord
100
AcDbLayerTableRecord
  2
01_AXR_S_V_T_TSHauptpunkte_2
 70
0
 62
7
  6
Continuous
370
-3
390
 19
  0
LAYER
  5
1FA
330
 1A
100
AcDbSymbolTableRecord
100
AcDbLayerTableRecord
  2
01_AXR_S_V_T_TSHauptpunkte2_2
 70
0
 62
7
  6
Continuous
370
-3
390
 19
  0
LAYER
  5
1FB
330
 1A
100
AcDbSymbolTableRecord
100
AcDbLayerTableRecord
  2
01_AXR_S_V_T_TSHauptpunkte1_2
 70
0
 62
7
  6
Continuous
370
-3
390
 19
  0
LAYER
  5
1FC
330
 1A
100
AcDbSymbolTableRecord
100
AcDbLayerTableRecord
  2
01_AXR_S_V_T_B_Querneigungszei
 70
0
 62
7
  6
Continuous
370
-3
390
 19
  0
LAYER
  5
1FD
330
 1A
100
AcDbSymbolTableRecord
100
AcDbLayerTableRecord
  2
01_AXR_S_V_T_B_Querneigungszei
 70
0
 62
7
  6
Continuous
370
-3
390
 19
  0
LAYER
  5
1FE
330
 1A
100
AcDbSymbolTableRecord
100
AcDbLayerTableRecord
  2
01_AXR_S_V_T_B_Querneigungszei
 70
0
 62
7
  6
Continuous
370
-3
390
 19
  0
LAYER
  5
1FF
330
 1A
100
AcDbSymbolTableRecord
100
AcDbLayerTableRecord
  2
01_AXR_S_V_T_B_Hauptpunktzeige
 70
0
 62
7
  6
Continuous
370
-3
390
 19
  0
LAYER
  5
200
330
 1A
100
AcDbSymbolTableRecord
100
AcDbLayerTableRecord
  2
01_AXR_S_V_K_Symbole_2
 70
0
 62
7
  6
Continuous
370
-3
390
 19
  0
LAYER
  5
201
330
 1A
100
AcDbSymbolTableRecord
100
AcDbLayerTableRecord
  2
01_PM_S_Vermessung_Boschstr_2
 70
0
 62
7
  6
Continuous
370
-3
390
 19
  0
LAYER
  5
202
330
 1A
100
AcDbSymbolTableRecord
100
AcDbLayerTableRecord
  2
01_PM_S_F_vorh_Asphaltbuergers
 70
0
 62
7
  6
Continuous
370
-3
390
 19
  0
LAYER
  5
203
330
 1A
100
AcDbSymbolTableRecord
100
AcDbLayerTableRecord
  2
01_PM_S_F_Gruenflaeche_6
 70
0
 62
7
  6
Continuous
370
-3
390
 19
  0
LAYER
  5
204
330
 1A
100
AcDbSymbolTableRecord
100
AcDbLayerTableRecord
  2
01_PM_S_F_Fahrbahnfarbe_6
 70
0
 62
7
  6
Continuous
370
-3
390
 19
  0
LAYER
  5
205
330
 1A
100
AcDbSymbolTableRecord
100
AcDbLayerTableRecord
  2
01_PM_S_F_Angleichung_Beton_6
 70
0
 62
7
  6
Continuous
370
-3
390
 19
  0
LAYER
  5
206
330
 1A
100
AcDbSymbolTableRecord
100
AcDbLayerTableRecord
  2
01_PM_S_F_Angleichung_Asphalt_
 70
0
 62
7
  6
Continuous
370
-3
390
 19
  0
LAYER
  5
207
330
 1A
100
AcDbSymbolTableRecord
100
AcDbLayerTableRecord
  2
01_0
 70
0
 62
7
  6
Continuous
370
-3
390
 19
  0
LAYER
  5
208
330
 1A
100
AcDbSymbolTableRecord
100
AcDbLayerTableRecord
  2
01_Achspunkte
 70
0
 62
7
  6
Continuous
370
-3
390
 19
  0
LAYER
  5
209
330
 1A
100
AcDbSymbolTableRecord
100
AcDbLayerTableRecord
  2
01_AXR_S_V_T_Tangenten_5
 70
0
 62
7
  6
Continuous
370
-3
390
 19
  0
LAYER
  5
20A
330
 1A
100
AcDbSymbolTableRecord
100
AcDbLayerTableRecord
  2
01_AXR_S_V_T_Tangenten2_5
 70
0
 62
7
  6
Continuous
370
-3
390
 19
  0
LAYER
  5
20B
330
 1A
100
AcDbSymbolTableRecord
100
AcDbLayerTableRecord
  2
01_AXR_S_V_T_Tangenten1_5
 70
0
 62
7
  6
Continuous
370
-3
390
 19
  0
LAYER
  5
20C
330
 1A
100
AcDbSymbolTableRecord
100
AcDbLayerTableRecord
  2
01_AXR_S_V_T_Elemente_5
 70
0
 62
7
  6
Continuous
370
-3
390
 19
  0
LAYER
  5
20D
330
 1A
100
AcDbSymbolTableRecord
100
AcDbLayerTableRecord
  2
01_AXR_S_V_T_Elemente2_5
 70
0
 62
7
  6
Continuous
370
-3
390
 19
  0
LAYER
  5
20E
330
 1A
100
AcDbSymbolTableRecord
100
AcDbLayerTableRecord
  2
01_AXR_S_V_T_Elemente1_5
 70
0
 62
7
  6
Continuous
370
-3
390
 19
  0
LAYER
  5
20F
330
 1A
100
AcDbSymbolTableRecord
100
AcDbLayerTableRecord
  2
01_AXR_S_V_T_B_Stationszeiger_
 70
0
 62
7
  6
Continuous
370
-3
390
 19
  0
LAYER
  5
210
330
 1A
100
AcDbSymbolTableRecord
100
AcDbLayerTableRecord
  2
01_AXR_S_V_T_B_Stationszeiger2
 70
0
 62
7
  6
Continuous
370
-3
390
 19
  0
LAYER
  5
211
330
 1A
100
AcDbSymbolTableRecord
100
AcDbLayerTableRecord
  2
01_AXR_S_V_T_B_Stationszeiger1
 70
0
 62
7
  6
Continuous
370
-3
390
 19
  0
LAYER
  5
212
330
 1A
100
AcDbSymbolTableRecord
100
AcDbLayerTableRecord
  2
01_AXR_S_V_T_B_Hauptpunktzeige
 70
0
 62
7
  6
Continuous
370
-3
390
 19
  0
LAYER
  5
213
330
 1A
100
AcDbSymbolTableRecord
100
AcDbLayerTableRecord
  2
01_AXR_Default_5
 70
0
 62
7
  6
Continuous
370
-3
390
 19
  0
LAYER
  5
214
330
 1A
100
AcDbSymbolTableRecord
100
AcDbLayerTableRecord
  2
01_PM_S_Bordstein_5
 70
0
 62
7
  6
Continuous
370
-3
390
 19
  0
LAYER
  5
215
330
 1A
100
AcDbSymbolTableRecord
100
AcDbLayerTableRecord
  2
01_PM_Default_5
 70
0
 62
7
  6
Continuous
370
-3
390
 19
  0
LAYER
  5
216
330
 1A
100
AcDbSymbolTableRecord
100
AcDbLayerTableRecord
  2
01_PM_B_Bemaszungshilfslinien_
 70
0
 62
7
  6
Continuous
370
-3
390
 19
  0
LAYER
  5
217
330
 1A
100
AcDbSymbolTableRecord
100
AcDbLayerTableRecord
  2
01_PM_B_9_0_Gruenflaechen_oeff
 70
0
 62
7
  6
Continuous
370
-3
390
 19
  0
LAYER
  5
218
330
 1A
100
AcDbSymbolTableRecord
100
AcDbLayerTableRecord
  2
01_PM_B_3_6_Grundstuecksgrenze
 70
0
 62
7
  6
Continuous
370
-3
390
 19
  0
LAYER
  5
219
330
 1A
100
AcDbSymbolTableRecord
100
AcDbLayerTableRecord
  2
01_AXR_S_V_T_TSHauptpunkte_3
 70
0
 62
7
  6
Continuous
370
-3
390
 19
  0
LAYER
  5
21A
330
 1A
100
AcDbSymbolTableRecord
100
AcDbLayerTableRecord
  2
01_AXR_S_V_T_B_Stationszeiger_
 70
0
 62
7
  6
Continuous
370
-3
390
 19
  0
LAYER
  5
21B
330
 1A
100
AcDbSymbolTableRecord
100
AcDbLayerTableRecord
  2
01_AXR_S_V_T_B_Stationszeiger2
 70
0
 62
7
  6
Continuous
370
-3
390
 19
  0
LAYER
  5
21C
330
 1A
100
AcDbSymbolTableRecord
100
AcDbLayerTableRecord
  2
01_AXR_S_V_T_B_Stationszeiger1
 70
0
 62
7
  6
Continuous
370
-3
390
 19
  0
LAYER
  5
21D
330
 1A
100
AcDbSymbolTableRecord
100
AcDbLayerTableRecord
  2
01_AXR_S_V_T_B_Querneigungszei
 70
0
 62
7
  6
Continuous
370
-3
390
 19
  0
LAYER
  5
21E
330
 1A
100
AcDbSymbolTableRecord
100
AcDbLayerTableRecord
  2
01_AXR_S_V_T_B_Querneigungszei
 70
0
 62
7
  6
Continuous
370
-3
390
 19
  0
LAYER
  5
21F
330
 1A
100
AcDbSymbolTableRecord
100
AcDbLayerTableRecord
  2
01_AXR_S_V_T_B_Querneigungszei
 70
0
 62
7
  6
Continuous
370
-3
390
 19
  0
LAYER
  5
220
330
 1A
100
AcDbSymbolTableRecord
100
AcDbLayerTableRecord
  2
01_AXR_S_V_T_B_Hauptpunktzeige
 70
0
 62
7
  6
Continuous
370
-3
390
 19
  0
LAYER
  5
221
330
 1A
100
AcDbSymbolTableRecord
100
AcDbLayerTableRecord
  2
01_AXR_S_V_K_Symbole_3
 70
0
 62
7
  6
Continuous
370
-3
390
 19
  0
LAYER
  5
222
330
 1A
100
AcDbSymbolTableRecord
100
AcDbLayerTableRecord
  2
01_AXR_Default_3
 70
0
 62
7
  6
Continuous
370
-3
390
 19
  0
LAYER
  5
223
330
 1A
100
AcDbSymbolTableRecord
100
AcDbLayerTableRecord
  2
01_PM_S_Schrift025_3
 70
0
 62
7
  6
Continuous
370
-3
390
 19
  0
ENDTAB
  0
TABLE
  2
STYLE
  5
  5
100
AcDbSymbolTable
  0
STYLE
  5
  6
100
AcDbSymbolTableRecord
100
AcDbTextStyleTableRecord
  2
STANDARD
 70
     0
 40
0.0
 41
1.0
 50
0.0
 71
     0
 42
10.0
  3
txt
  4

  0
ENDTAB
  0
TABLE
  2
VIEW
  5
  7
100
AcDbSymbolTable
  0
ENDTAB
  0
TABLE
  2
UCS
  5
  8
100
AcDbSymbolTable
  0
ENDTAB
  0
TABLE
  2
APPID
  5
  9
100
AcDbSymbolTable
  0
APPID
  5
  A
100
AcDbSymbolTableRecord
100
AcDbRegAppTableRecord
  2
ACAD
 70
0
  0
ENDTAB
  0
TABLE
  2
DIMSTYLE
  5
  B
100
AcDbSymbolTable
 70
     1
100
AcDbDimStyleTable
 71
     0
  0
DIMSTYLE
105
 1B
330
B
100
AcDbSymbolTableRecord
100
AcDbDimStyleTableRecord
  2
STANDARD
 70
    0
340
  6
  0
ENDTAB
  0
TABLE
  2
BLOCK_RECORD
  5
  C
100
AcDbSymbolTable
  0
BLOCK_RECORD
  5
  D
100
AcDbSymbolTableRecord
100
AcDbBlockTableRecord
  2
*MODEL_SPACE
  0
BLOCK_RECORD
  5
  E
100
AcDbSymbolTableRecord
100
AcDbBlockTableRecord
  2
*PAPER_SPACE
  0
BLOCK_RECORD
  5
26
100
AcDbSymbolTableRecord
100
AcDbBlockTableRecord
  2
01_Achspunkt
  0
ENDTAB
  0
ENDSEC
  0
SECTION
  2
BLOCKS
  0
BLOCK
  5
  F
330
  D
100
AcDbEntity
  8
0
100
AcDbBlockBegin
  2
*MODEL_SPACE
 70
     0
  0
ENDBLK
  5
 10
100
AcDbEntity
  8
0
100
AcDbBlockEnd
  0
BLOCK
  5
 11
330
  E
100
AcDbEntity
  8
0
100
AcDbBlockBegin
  2
*PAPER_SPACE
 70
     0
  0
ENDBLK
  5
 12
100
AcDbEntity
  8
0
100
AcDbBlockEnd
  0
BLOCK
  5
27
100
AcDbEntity
  8
01_PM_S_F_Angleichung_Asphalt_
100
AcDbBlockBegin
  2
01_Achspunkt
 10
0
 20
0
 70
0
  0
LINE
  5
28
100
AcDbEntity
  8
01_0
100
AcDbLine
 62
160
 10
-0.5
 20
0.5
 11
0.5
 21
-0.5
  0
LINE
  5
29
100
AcDbEntity
  8
01_0
100
AcDbLine
 62
160
 10
-0.5
 20
-0.5
 11
0.5
 21
0.5
  0
ENDBLK
  5
224
100
AcDbEntity
  8
01_PM_S_Schrift025_3
100
AcDbBlockEnd
  0
ENDSEC
  0
SECTION
  2
ENTITIES
  0
INSERT
  5
2A
100
AcDbEntity
  8
01_Achspunkte
100
AcDbBlockReference
  2
01_Achspunkt
 10
389739.006
 20
5548579.166
 62
0
  0
INSERT
  5
2B
100
AcDbEntity
  8
01_Achspunkte
100
AcDbBlockReference
  2
01_Achspunkt
 10
389760.54
 20
5548593.425
 62
0
  0
INSERT
  5
2C
100
AcDbEntity
  8
01_Achspunkte
100
AcDbBlockReference
  2
01_Achspunkt
 10
389736.9
 20
5548585.296
 62
0
  0
INSERT
  5
2D
100
AcDbEntity
  8
01_Achspunkte
100
AcDbBlockReference
  2
01_Achspunkt
 10
389876.206
 20
5548467.468
 62
0
  0
INSERT
  5
2E
100
AcDbEntity
  8
01_Achspunkte
100
AcDbBlockReference
  2
01_Achspunkt
 10
389869.352
 20
5548465.416
 62
0
  0
INSERT
  5
2F
100
AcDbEntity
  8
01_Achspunkte
100
AcDbBlockReference
  2
01_Achspunkt
 10
389741.427
 20
5548390.622
 62
0
  0
INSERT
  5
30
100
AcDbEntity
  8
01_Achspunkte
100
AcDbBlockReference
  2
01_Achspunkt
 10
389784.181
 20
5548601.555
 62
0
  0
INSERT
  5
31
100
AcDbEntity
  8
01_Achspunkte
100
AcDbBlockReference
  2
01_Achspunkt
 10
389809.235
 20
5548422.67
 62
0
  0
INSERT
  5
32
100
AcDbEntity
  8
01_Achspunkte
100
AcDbBlockReference
  2
01_Achspunkt
 10
389854.441
 20
5548444.036
 62
0
  0
INSERT
  5
33
100
AcDbEntity
  8
01_Achspunkte
100
AcDbBlockReference
  2
01_Achspunkt
 10
389837.575
 20
5548559.904
 62
0
  0
INSERT
  5
34
100
AcDbEntity
  8
01_Achspunkte
100
AcDbBlockReference
  2
01_Achspunkt
 10
389718.825
 20
5548379.939
 62
0
  0
INSERT
  5
35
100
AcDbEntity
  8
01_Achspunkte
100
AcDbBlockReference
  2
01_Achspunkt
 10
389716.047
 20
5548385.816
 62
0
  0
INSERT
  5
36
100
AcDbEntity
  8
01_Achspunkte
100
AcDbBlockReference
  2
01_Achspunkt
 10
389834.746
 20
5548585.638
 62
0
  0
INSERT
  5
37
100
AcDbEntity
  8
01_Achspunkte
100
AcDbBlockReference
  2
01_Achspunkt
 10
389861.336
 20
5548515.431
 62
0
  0
INSERT
  5
38
100
AcDbEntity
  8
01_Achspunkte
100
AcDbBlockReference
  2
01_Achspunkt
 10
389796.459
 20
5548631.524
 62
0
  0
INSERT
  5
39
100
AcDbEntity
  8
01_Achspunkte
100
AcDbBlockReference
  2
01_Achspunkt
 10
389855.256
 20
5548513.133
 62
0
  0
INSERT
  5
3A
100
AcDbEntity
  8
01_Achspunkte
100
AcDbBlockReference
  2
01_Achspunkt
 10
389762.648
 20
5548587.291
 62
0
  0
INSERT
  5
3B
100
AcDbEntity
  8
01_Achspunkte
100
AcDbBlockReference
  2
01_Achspunkt
 10
389806.458
 20
5548428.547
 62
0
  0
INSERT
  5
3C
100
AcDbEntity
  8
01_Achspunkte
100
AcDbBlockReference
  2
01_Achspunkt
 10
389720.404
 20
5548572.775
 62
0
  0
INSERT
  5
3D
100
AcDbEntity
  8
01_Achspunkte
100
AcDbBlockReference
  2
01_Achspunkt
 10
389828.722
 20
5548583.203
 62
0
  0
INSERT
  5
3E
100
AcDbEntity
  8
01_Achspunkte
100
AcDbBlockReference
  2
01_Achspunkt
 10
389851.664
 20
5548449.912
 62
0
  0
INSERT
  5
3F
100
AcDbEntity
  8
01_Achspunkte
100
AcDbBlockReference
  2
01_Achspunkt
 10
389738.65
 20
5548396.498
 62
0
  0
INSERT
  5
40
100
AcDbEntity
  8
01_Achspunkte
100
AcDbBlockReference
  2
01_Achspunkt
 10
389810.846
 20
5548603.75
 62
0
  0
INSERT
  5
41
100
AcDbEntity
  8
01_Achspunkte
100
AcDbBlockReference
  2
01_Achspunkt
 10
389816.5
 20
5548603.267
 62
0
  0
INSERT
  5
42
100
AcDbEntity
  8
01_Achspunkte
100
AcDbBlockReference
  2
01_Achspunkt
 10
389783.856
 20
5548417.864
 62
0
  0
INSERT
  5
43
100
AcDbEntity
  8
01_Achspunkte
100
AcDbBlockReference
  2
01_Achspunkt
 10
389869.038
 20
5548491.418
 62
0
  0
INSERT
  5
44
100
AcDbEntity
  8
01_Achspunkte
100
AcDbBlockReference
  2
01_Achspunkt
 10
389878.158
 20
5548452.361
 62
0
  0
INSERT
  5
45
100
AcDbEntity
  8
01_Achspunkte
100
AcDbBlockReference
  2
01_Achspunkt
 10
389793.135
 20
5548625.896
 62
0
  0
INSERT
  5
46
100
AcDbEntity
  8
01_Achspunkte
100
AcDbBlockReference
  2
01_Achspunkt
 10
389804.194
 20
5548626.592
 62
0
  0
INSERT
  5
47
100
AcDbEntity
  8
01_Achspunkte
100
AcDbBlockReference
  2
01_Achspunkt
 10
389846.415
 20
5548536.518
 62
0
  0
INSERT
  5
48
100
AcDbEntity
  8
01_Achspunkte
100
AcDbBlockReference
  2
01_Achspunkt
 10
389761.253
 20
5548407.182
 62
0
  0
INSERT
  5
49
100
AcDbEntity
  8
01_Achspunkte
100
AcDbBlockReference
  2
01_Achspunkt
 10
389843.655
 20
5548562.201
 62
0
  0
INSERT
  5
4A
100
AcDbEntity
  8
01_Achspunkte
100
AcDbBlockReference
  2
01_Achspunkt
 10
389764.03
 20
5548401.305
 62
0
  0
INSERT
  5
4B
100
AcDbEntity
  8
01_Achspunkte
100
AcDbBlockReference
  2
01_Achspunkt
 10
389831.838
 20
5548433.353
 62
0
  0
INSERT
  5
4C
100
AcDbEntity
  8
01_Achspunkte
100
AcDbBlockReference
  2
01_Achspunkt
 10
389786.633
 20
5548411.988
 62
0
  0
INSERT
  5
4D
100
AcDbEntity
  8
01_Achspunkte
100
AcDbBlockReference
  2
01_Achspunkt
 10
389800.221
 20
5548620.867
 62
0
  0
INSERT
  5
4E
100
AcDbEntity
  8
01_Achspunkte
100
AcDbBlockReference
  2
01_Achspunkt
 10
389822.607
 20
5548608.642
 62
0
  0
INSERT
  5
4F
100
AcDbEntity
  8
01_Achspunkte
100
AcDbBlockReference
  2
01_Achspunkt
 10
389786.291
 20
5548595.416
 62
0
  0
INSERT
  5
50
100
AcDbEntity
  8
01_Achspunkte
100
AcDbBlockReference
  2
01_Achspunkt
 10
389862.813
 20
5548489.555
 62
0
  0
INSERT
  5
51
100
AcDbEntity
  8
01_Achspunkte
100
AcDbBlockReference
  2
01_Achspunkt
 10
389829.06
 20
5548439.229
 62
0
  0
INSERT
  5
52
100
AcDbEntity
  8
01_Achspunkte
100
AcDbBlockReference
  2
01_Achspunkt
 10
389852.496
 20
5548538.816
 62
0
  0
CIRCLE
  5
53
100
AcDbEntity
  8
01_AXR_S_V_T_TSHauptpunkte_2
100
AcDbCircle
 62
7
 10
389881.618
 20
5548438.15
 40
0.125
  0
CIRCLE
  5
54
100
AcDbEntity
  8
01_AXR_S_V_T_TSHauptpunkte_2
100
AcDbCircle
 62
7
 10
389828.679
 20
5548591.544
 40
0.125
  0
CIRCLE
  5
55
100
AcDbEntity
  8
01_AXR_S_V_T_TSHauptpunkte_2
100
AcDbCircle
 62
7
 10
389860.147
 20
5548509.385
 40
0.125
  0
CIRCLE
  5
56
100
AcDbEntity
  8
01_AXR_S_V_T_TSHauptpunkte_2
100
AcDbCircle
 62
7
 10
389881.32
 20
5548439.063
 40
0.125
  0
CIRCLE
  5
57
100
AcDbEntity
  8
01_AXR_S_V_T_TSHauptpunkte_2
100
AcDbCircle
 62
7
 10
389825.71
 20
5548597.765
 40
0.125
  0
CIRCLE
  5
58
100
AcDbEntity
  8
01_AXR_S_V_T_TSHauptpunkte_2
100
AcDbCircle
 62
7
 10
389810.932
 20
5548616.809
 40
0.125
  0
CIRCLE
  5
59
100
AcDbEntity
  8
01_AXR_S_V_T_TSHauptpunkte_2
100
AcDbCircle
 62
7
 10
389827.25
 20
5548594.681
 40
0.125
  0
CIRCLE
  5
5A
100
AcDbEntity
  8
01_AXR_S_V_T_TSHauptpunkte_2
100
AcDbCircle
 62
7
 10
389803.363
 20
5548623.18
 40
0.125
  0
CIRCLE
  5
5B
100
AcDbEntity
  8
01_AXR_S_V_T_TSHauptpunkte_2
100
AcDbCircle
 62
7
 10
389798.43
 20
5548626.602
 40
0.125
  0
CIRCLE
  5
5C
100
AcDbEntity
  8
01_AXR_S_V_T_TSHauptpunkte_2
100
AcDbCircle
 62
7
 10
389833.209
 20
5548580.662
 40
0.125
  0
CIRCLE
  5
5D
100
AcDbEntity
  8
01_AXR_S_V_T_TSHauptpunkte_2
100
AcDbCircle
 62
7
 10
389831.124
 20
5548586.178
 40
0.125
  0
CIRCLE
  5
5E
100
AcDbEntity
  8
01_AXR_S_V_T_TSHauptpunkte_2
100
AcDbCircle
 62
7
 10
389929.942
 20
5548301.057
 40
0.125
  0
CIRCLE
  5
5F
100
AcDbEntity
  8
01_AXR_S_V_T_TSHauptpunkte_2
100
AcDbCircle
 62
7
 10
389821.248
 20
5548605.088
 40
0.125
  0
CIRCLE
  5
60
100
AcDbEntity
  8
01_AXR_S_V_T_TSHauptpunkte_2
100
AcDbCircle
 62
7
 10
389860.733
 20
5548507.834
 40
0.125
  0
CIRCLE
  5
61
100
AcDbEntity
  8
01_AXR_S_V_T_TSHauptpunkte_2
100
AcDbCircle
 62
7
 10
389824.791
 20
5548599.607
 40
0.125
  0
CIRCLE
  5
62
100
AcDbEntity
  8
01_AXR_S_V_T_TSHauptpunkte_2
100
AcDbCircle
 62
7
 10
389861.208
 20
5548506.247
 40
0.125
  0
CIRCLE
  5
63
100
AcDbEntity
  8
01_AXR_S_V_T_TSHauptpunkte_2
100
AcDbCircle
 62
7
 10
389881.458
 20
5548438.603
 40
0.125
  0
CIRCLE
  5
64
100
AcDbEntity
  8
01_AXR_S_V_T_TSHauptpunkte_2
100
AcDbCircle
 62
7
 10
389778.826
 20
5548637.846
 40
0.125
  0
CIRCLE
  5
65
100
AcDbEntity
  8
01_AXR_S_V_T_TSHauptpunkte2_2
100
AcDbCircle
 62
7
 10
389814.87
 20
5548612.335
 40
0.125
  0
CIRCLE
  5
66
100
AcDbEntity
  8
01_AXR_S_V_T_TSHauptpunkte2_2
100
AcDbCircle
 62
7
 10
389714.306
 20
5548574.115
 40
0.125
  0
CIRCLE
  5
67
100
AcDbEntity
  8
01_AXR_S_V_T_TSHauptpunkte2_2
100
AcDbCircle
 62
7
 10
389806.927
 20
5548605.944
 40
0.125
  0
CIRCLE
  5
68
100
AcDbEntity
  8
01_AXR_S_V_T_TSHauptpunkte2_2
100
AcDbCircle
 62
7
 10
389817.408
 20
5548614.634
 40
0.125
  0
CIRCLE
  5
69
100
AcDbEntity
  8
01_AXR_S_V_T_TSHauptpunkte2_2
100
AcDbCircle
 62
7
 10
389809.742
 20
5548607.62
 40
0.125
  0
CIRCLE
  5
6A
100
AcDbEntity
  8
01_AXR_S_V_T_TSHauptpunkte2_2
100
AcDbCircle
 62
7
 10
389808.51
 20
5548606.488
 40
0.125
  0
CIRCLE
  5
6B
100
AcDbEntity
  8
01_AXR_S_V_T_TSHauptpunkte1_2
100
AcDbCircle
 62
7
 10
389875.742
 20
5548457.698
 40
0.125
  0
CIRCLE
  5
6C
100
AcDbEntity
  8
01_AXR_S_V_T_TSHauptpunkte1_2
100
AcDbCircle
 62
7
 10
389694.718
 20
5548372.451
 40
0.125
  0
CIRCLE
  5
6D
100
AcDbEntity
  8
01_AXR_S_V_T_TSHauptpunkte1_2
100
AcDbCircle
 62
7
 10
389876.214
 20
5548457.921
 40
0.125
  0
CIRCLE
  5
6E
100
AcDbEntity
  8
01_AXR_S_V_T_TSHauptpunkte1_2
100
AcDbCircle
 62
7
 10
389877.157
 20
5548458.367
 40
0.125
  0
CIRCLE
  5
6F
100
AcDbEntity
  8
01_AXR_S_V_T_TSHauptpunkte1_2
100
AcDbCircle
 62
7
 10
389874.327
 20
5548457.029
 40
0.125
  0
CIRCLE
  5
70
100
AcDbEntity
  8
01_AXR_S_V_T_TSHauptpunkte1_2
100
AcDbCircle
 62
7
 10
389878.572
 20
5548459.036
 40
0.125
  0
CIRCLE
  5
71
100
AcDbEntity
  8
01_AXR_S_V_T_TSHauptpunkte1_2
100
AcDbCircle
 62
7
 10
389702.256
 20
5548375.705
 40
0.125
  0
CIRCLE
  5
72
100
AcDbEntity
  8
01_AXR_S_V_T_TSHauptpunkte1_2
100
AcDbCircle
 62
7
 10
389875.27
 20
5548457.475
 40
0.125
  0
LWPOLYLINE
  5
73
100
AcDbEntity
  8
01_AXR_S_V_T_B_Querneigungszei
100
AcDbPolyline
 62
1
 90
3
 70
1
 10
389861.139
 20
5548515.529
 10
389855.339
 20
5548513.337
 10
389861.139
 20
5548515.529
  0
LWPOLYLINE
  5
74
100
AcDbEntity
  8
01_AXR_S_V_T_B_Querneigungszei
100
AcDbPolyline
 62
1
 90
1
 70
1
 10
389861.139
 20
5548515.529
  0
LWPOLYLINE
  5
75
100
AcDbEntity
  8
01_AXR_S_V_T_B_Querneigungszei
100
AcDbPolyline
 62
1
 90
3
 70
1
 10
389835.048
 20
5548584.496
 10
389829.285
 20
5548582.211
 10
389835.048
 20
5548584.496
  0
LWPOLYLINE
  5
76
100
AcDbEntity
  8
01_AXR_S_V_T_B_Querneigungszei
100
AcDbPolyline
 62
1
 90
1
 70
1
 10
389835.048
 20
5548584.496
  0
LWPOLYLINE
  5
77
100
AcDbEntity
  8
01_AXR_S_V_T_B_Querneigungszei
100
AcDbPolyline
 62
1
 90
3
 70
1
 10
389764.491
 20
5548588.083
 10
389762.476
 20
5548593.946
 10
389764.491
 20
5548588.083
  0
LWPOLYLINE
  5
78
100
AcDbEntity
  8
01_AXR_S_V_T_B_Querneigungszei
100
AcDbPolyline
 62
1
 90
1
 70
1
 10
389764.491
 20
5548588.083
  0
LWPOLYLINE
  5
79
100
AcDbEntity
  8
01_AXR_S_V_T_B_Querneigungszei
100
AcDbPolyline
 62
1
 90
3
 70
1
 10
389733.643
 20
5548387.11
 10
389730.994
 20
5548392.716
 10
389733.643
 20
5548387.11
  0
LWPOLYLINE
  5
7A
100
AcDbEntity
  8
01_AXR_S_V_T_B_Querneigungszei
100
AcDbPolyline
 62
1
 90
1
 70
1
 10
389733.643
 20
5548387.11
  0
LWPOLYLINE
  5
7B
100
AcDbEntity
  8
01_AXR_S_V_T_B_Querneigungszei
100
AcDbPolyline
 62
1
 90
3
 70
1
 10
389848.9
 20
5548441.583
 10
389846.251
 20
5548447.189
 10
389848.9
 20
5548441.583
  0
LWPOLYLINE
  5
7C
100
AcDbEntity
  8
01_AXR_S_V_T_B_Querneigungszei
100
AcDbPolyline
 62
1
 90
1
 70
1
 10
389848.9
 20
5548441.583
  0
LWPOLYLINE
  5
7D
100
AcDbEntity
  8
01_AXR_S_V_T_B_Hauptpunktzeige
100
AcDbPolyline
 62
7
 90
3
 70
1
 10
389715.119
 20
5548571.751
 10
389715.23
 20
5548570.467
 10
389715.119
 20
5548571.751
  0
LWPOLYLINE
  5
7E
100
AcDbEntity
  8
01_AXR_S_V_T_B_Hauptpunktzeige
100
AcDbPolyline
 62
7
 90
1
 70
1
 10
389715.119
 20
5548571.751
  0
LWPOLYLINE
  5
7F
100
AcDbEntity
  8
01_AXR_S_V_T_B_Hauptpunktzeige
100
AcDbPolyline
 62
7
 90
3
 70
1
 10
389819.86
 20
5548614.15
 10
389821.026
 20
5548613.602
 10
389819.86
 20
5548614.15
  0
LWPOLYLINE
  5
80
100
AcDbEntity
  8
01_AXR_S_V_T_B_Hauptpunktzeige
100
AcDbPolyline
 62
7
 90
1
 70
1
 10
389819.86
 20
5548614.15
  0
CIRCLE
  5
81
100
AcDbEntity
  8
01_AXR_S_V_K_Symbole_2
100
AcDbCircle
 62
4
 10
389875.742
 20
5548457.698
 40
0.174999997019768
  0
CIRCLE
  5
82
100
AcDbEntity
  8
01_AXR_S_V_K_Symbole_2
100
AcDbCircle
 62
4
 10
389814.87
 20
5548612.335
 40
0.174999997019768
  0
CIRCLE
  5
83
100
AcDbEntity
  8
01_PM_S_Vermessung_Boschstr_2
100
AcDbCircle
 62
1
 10
389705.79
 20
5548379.727
 40
0.683000028133392
  0
CIRCLE
  5
84
100
AcDbEntity
  8
01_PM_S_Vermessung_Boschstr_2
100
AcDbCircle
 62
1
 10
389698.065
 20
5548376.397
 40
0.683000028133392
  0
CIRCLE
  5
85
100
AcDbEntity
  8
01_PM_S_Vermessung_Boschstr_2
100
AcDbCircle
 62
1
 10
389708.375
 20
5548373.801
 40
0.683000028133392
  0
CIRCLE
  5
86
100
AcDbEntity
  8
01_PM_S_Vermessung_Boschstr_2
100
AcDbCircle
 62
1
 10
389700.58
 20
5548370.657
 40
0.683000028133392
  0
CIRCLE
  5
87
100
AcDbEntity
  8
01_PM_S_Vermessung_Boschstr_2
100
AcDbCircle
 62
1
 10
389693.996
 20
5548374.648
 40
0.683000028133392
  0
CIRCLE
  5
88
100
AcDbEntity
  8
01_PM_S_Vermessung_Boschstr_2
100
AcDbCircle
 62
1
 10
389703.064
 20
5548371.804
 40
0.683000028133392
  0
CIRCLE
  5
89
100
AcDbEntity
  8
01_PM_S_Vermessung_Boschstr_2
100
AcDbCircle
 62
1
 10
389696.02
 20
5548368.489
 40
0.683000028133392
  0
LWPOLYLINE
  5
8A
100
AcDbEntity
  8
01_PM_S_F_vorh_Asphaltbuergers
100
AcDbPolyline
 62
8
 90
7
 70
1
 10
389696.02
 20
5548368.489
 10
389693.996
 20
5548374.648
 10
389691.805
 20
5548374.734
 10
389688.547
 20
5548373.328
 10
389683.256
 20
5548371.022
 10
389687.222
 20
5548364.616
 10
389696.02
 20
5548368.489
  0
LWPOLYLINE
  5
8B
100
AcDbEntity
  8
01_PM_S_F_vorh_Asphaltbuergers
100
AcDbPolyline
 62
8
 90
3
 70
1
 10
389693.996
 20
5548374.648
 10
389692.085
 20
5548374.723
 10
389693.996
 20
5548374.648
  0
LWPOLYLINE
  5
8C
100
AcDbEntity
  8
01_PM_S_F_vorh_Asphaltbuergers
100
AcDbPolyline
 62
8
 90
1
 70
1
 10
389693.996
 20
5548374.648
  0
LWPOLYLINE
  5
8D
100
AcDbEntity
  8
01_PM_S_F_vorh_Asphaltbuergers
100
AcDbPolyline
 62
8
 90
12
 70
1
 10
389694.157
 20
5548375.586
 10
389693.248
 20
5548376.388
 10
389692.916
 20
5548377.266
 10
389692.468
 20
5548378.397
 10
389690.794
 20
5548381.723
 10
389683.985
 20
5548379.365
 10
389685.251
 20
5548376.135
 10
389685.425
 20
5548375
 10
389685.469
 20
5548373.778
 10
389685.076
 20
5548372.425
 10
389684.574
 20
5548371.596
 10
389694.157
 20
5548375.586
  0
LWPOLYLINE
  5
8E
100
AcDbEntity
  8
01_PM_S_F_Gruenflaeche_6
100
AcDbPolyline
 62
70
 90
63
 70
1
 10
389811.601
 20
5548603.881
 10
389813.529
 20
5548601.612
 10
389815.216
 20
5548599.335
 10
389816.797
 20
5548596.876
 10
389818.158
 20
5548594.418
 10
389819.09
 20
5548592.482
 10
389820.132
 20
5548590.298
 10
389821.067
 20
5548588.34
 10
389822.679
 20
5548584.708
 10
389824.878
 20
5548579.327
 10
389826.655
 20
5548574.65
 10
389828.12
 20
5548570.774
 10
389829.33
 20
5548567.574
 10
389833.941
 20
5548555.377
 10
389836.768
 20
5548547.898
 10
389838.384
 20
5548543.624
 10
389842
 20
5548534.058
 10
389844.289
 20
5548528.004
 10
389846.324
 20
5548522.62
 10
389849.606
 20
5548513.939
 10
389851.853
 20
5548507.993
 10
389852.605
 20
5548505.996
 10
389853.214
 20
5548504.18
 10
389854.038
 20
5548501.431
 10
389855.612
 20
5548496.176
 10
389858.66
 20
5548485.991
 10
389862.645
 20
5548472.68
 10
389863.661
 20
5548469.287
 10
389864.927
 20
5548465.057
 10
389866.043
 20
5548461.331
 10
389866.874
 20
5548458.554
 10
389867.692
 20
5548459.758
 10
389868.222
 20
5548460.756
 10
389868.644
 20
5548461.767
 10
389868.997
 20
5548462.904
 10
389869.219
 20
5548463.97
 10
389859.334
 20
5548496.992
 10
389856.754
 20
5548505.591
 10
389856.376
 20
5548506.732
 10
389856.071
 20
5548507.581
 10
389851.919
 20
5548518.567
 10
389848.373
 20
5548527.946
 10
389844.236
 20
5548538.889
 10
389840.909
 20
5548547.69
 10
389834.233
 20
5548565.351
 10
389828.866
 20
5548579.547
 10
389827.705
 20
5548582.512
 10
389826.715
 20
5548584.922
 10
389825.132
 20
5548588.584
 10
389824.426
 20
5548590.124
 10
389823.423
 20
5548592.225
 10
389822.4
 20
5548594.368
 10
389821.767
 20
5548595.695
 10
389820.798
 20
5548597.541
 10
389819.655
 20
5548599.49
 10
389818.893
 20
5548600.681
 10
389817.959
 20
5548602.041
 10
389817.391
 20
5548602.821
 10
389816.508
 20
5548603.23
 10
389815.25
 20
5548603.643
 10
389814.233
 20
5548603.847
 10
389813.015
 20
5548603.95
 10
389811.601
 20
5548603.881
  0
LWPOLYLINE
  5
8F
100
AcDbEntity
  8
01_PM_S_F_Fahrbahnfarbe_6
100
AcDbPolyline
 62
9
 90
5
 70
1
 10
389719.213
 20
5548572.524
 10
389719.687
 20
5548579.218
 10
389794.529
 20
5548604.956
 10
389809.517
 20
5548603.556
 10
389719.213
 20
5548572.524
  0
LWPOLYLINE
  5
90
100
AcDbEntity
  8
01_PM_S_F_Fahrbahnfarbe_6
100
AcDbPolyline
 62
9
 90
12
 70
1
 10
389799.965
 20
5548629.285
 10
389802.153
 20
5548627.49
 10
389807.923
 20
5548623.215
 10
389810.059
 20
5548621.775
 10
389808.471
 20
5548623.113
 10
389807.337
 20
5548624.029
 10
389806.499
 20
5548624.688
 10
389805.068
 20
5548625.775
 10
389803.21
 20
5548627.12
 10
389801.826
 20
5548628.075
 10
389801.382
 20
5548628.374
 10
389799.965
 20
5548629.285
  0
LWPOLYLINE
  5
91
100
AcDbEntity
  8
01_PM_S_F_Fahrbahnfarbe_6
100
AcDbPolyline
 62
9
 90
8
 70
1
 10
389695.95
 20
5548368.622
 10
389693.736
 20
5548375.411
 10
389694.157
 20
5548375.586
 10
389701.028
 20
5548378.551
 10
389772.866
 20
5548412.504
 10
389775.097
 20
5548406.701
 10
389707.797
 20
5548374.893
 10
389695.95
 20
5548368.622
  0
LWPOLYLINE
  5
92
100
AcDbEntity
  8
01_PM_S_F_Fahrbahnfarbe_6
100
AcDbPolyline
 62
9
 90
28
 70
1
 10
389860.566
 20
5548447.096
 10
389861.395
 20
5548447.452
 10
389862.288
 20
5548447.76
 10
389863.222
 20
5548448.003
 10
389864.144
 20
5548448.167
 10
389880.372
 20
5548453.023
 10
389876.272
 20
5548466.724
 10
389869.012
 20
5548469.368
 10
389869.274
 20
5548468.331
 10
389869.414
 20
5548467.503
 10
389869.504
 20
5548466.554
 10
389869.521
 20
5548466.063
 10
389869.47
 20
5548464.748
 10
389869.337
 20
5548463.769
 10
389869.259
 20
5548463.368
 10
389869.053
 20
5548462.537
 10
389868.734
 20
5548461.578
 10
389868.385
 20
5548460.751
 10
389867.943
 20
5548459.892
 10
389867.229
 20
5548458.778
 10
389866.653
 20
5548458.042
 10
389866.023
 20
5548457.352
 10
389865.814
 20
5548457.145
 10
389865.23
 20
5548456.616
 10
389864.364
 20
5548455.946
 10
389863.169
 20
5548455.205
 10
389862.565
 20
5548454.899
 10
389860.566
 20
5548447.096
  0
LWPOLYLINE
  5
93
100
AcDbEntity
  8
01_PM_S_F_Fahrbahnfarbe_6
100
AcDbPolyline
 62
9
 90
50
 70
1
 10
389799.965
 20
5548629.285
 10
389796.75
 20
5548623.997
 10
389798.468
 20
5548622.846
 10
389799.957
 20
5548621.427
 10
389801.25
 20
5548619.503
 10
389801.937
 20
5548617.837
 10
389802.288
 20
5548616.264
 10
389802.386
 20
5548615.141
 10
389802.358
 20
5548613.999
 10
389801.829
 20
5548611.521
 10
389801.083
 20
5548609.844
 10
389800.142
 20
5548608.483
 10
389799.292
 20
5548607.479
 10
389797.883
 20
5548606.417
 10
389796.623
 20
5548605.692
 10
389795.312
 20
5548605.176
 10
389794.529
 20
5548604.956
 10
389809.517
 20
5548603.556
 10
389810.426
 20
5548603.821
 10
389811.392
 20
5548604.005
 10
389812.762
 20
5548604.102
 10
389814.225
 20
5548604
 10
389815.649
 20
5548603.688
 10
389816.797
 20
5548603.271
 10
389817.908
 20
5548602.705
 10
389818.585
 20
5548602.268
 10
389819.422
 20
5548601.611
 10
389820.661
 20
5548600.315
 10
389821.065
 20
5548599.771
 10
389821.571
 20
5548598.916
 10
389822.251
 20
5548597.698
 10
389822.939
 20
5548596.376
 10
389825.857
 20
5548590.262
 10
389831.503
 20
5548592.824
 10
389828.481
 20
5548599.155
 10
389827.838
 20
5548600.399
 10
389827.082
 20
5548601.77
 10
389826.389
 20
5548602.949
 10
389825.577
 20
5548604.252
 10
389824.614
 20
5548605.7
 10
389823.463
 20
5548607.31
 10
389822.386
 20
5548608.739
 10
389820.613
 20
5548610.967
 10
389819.075
 20
5548612.788
 10
389818.113
 20
5548613.877
 10
389815.821
 20
5548616.335
 10
389814.202
 20
5548617.964
 10
389812.506
 20
5548619.583
 10
389810.059
 20
5548621.775
 10
389799.965
 20
5548629.285
  0
LWPOLYLINE
  5
94
100
AcDbEntity
  8
01_PM_S_F_Fahrbahnfarbe_6
100
AcDbPolyline
 62
9
 90
5
 70
1
 10
389772.866
 20
5548412.504
 10
389775.097
 20
5548406.701
 10
389860.566
 20
5548447.096
 10
389862.565
 20
5548454.899
 10
389772.866
 20
5548412.504
  0
LWPOLYLINE
  5
95
100
AcDbEntity
  8
01_PM_S_F_Fahrbahnfarbe_6
100
AcDbPolyline
 62
9
 90
5
 70
1
 10
389793.212
 20
5548626.025
 10
389796.75
 20
5548623.997
 10
389799.965
 20
5548629.285
 10
389796.383
 20
5548631.395
 10
389793.212
 20
5548626.025
  0
LWPOLYLINE
  5
96
100
AcDbEntity
  8
01_PM_S_F_Fahrbahnfarbe_6
100
AcDbPolyline
 62
9
 90
35
 70
1
 10
389876.272
 20
5548466.724
 10
389869.012
 20
5548469.368
 10
389858.239
 20
5548505.358
 10
389857.896
 20
5548506.451
 10
389857.806
 20
5548506.878
 10
389857.5
 20
5548507.603
 10
389857.248
 20
5548508.288
 10
389830.303
 20
5548579.564
 10
389829.793
 20
5548580.896
 10
389829.339
 20
5548582.057
 10
389829.012
 20
5548582.879
 10
389828.531
 20
5548584.066
 10
389827.978
 20
5548585.401
 10
389827.144
 20
5548587.361
 10
389826.408
 20
5548589.037
 10
389825.857
 20
5548590.262
 10
389831.503
 20
5548592.824
 10
389832.282
 20
5548591.084
 10
389833.119
 20
5548589.129
 10
389834.226
 20
5548586.52
 10
389835.282
 20
5548583.888
 10
389835.946
 20
5548582.168
 10
389836.733
 20
5548580.088
 10
389839.522
 20
5548572.711
 10
389842.477
 20
5548564.893
 10
389845.981
 20
5548555.626
 10
389850.632
 20
5548543.322
 10
389854.216
 20
5548533.841
 10
389855.769
 20
5548529.733
 10
389863.047
 20
5548510.481
 10
389863.361
 20
5548509.625
 10
389863.802
 20
5548508.338
 10
389864.178
 20
5548507.135
 10
389872.967
 20
5548477.767
 10
389876.272
 20
5548466.724
  0
LWPOLYLINE
  5
97
100
AcDbEntity
  8
01_PM_S_F_Angleichung_Beton_6
100
AcDbPolyline
 62
254
 90
74
 70
1
 10
389720.21
 20
5548696.294
 10
389725.663
 20
5548694.523
 10
389728.476
 20
5548693.406
 10
389730.324
 20
5548692.526
 10
389732.273
 20
5548690.815
 10
389733.364
 20
5548689.448
 10
389734.287
 20
5548687.562
 10
389734.741
 20
5548685.687
 10
389735.156
 20
5548682.628
 10
389735.275
 20
5548680.592
 10
389735.286
 20
5548680.411
 10
389735.466
 20
5548677.332
 10
389735.558
 20
5548675.807
 10
389735.768
 20
5548673.436
 10
389735.929
 20
5548672.306
 10
389736.13
 20
5548671.141
 10
389736.966
 20
5548667.867
 10
389737.512
 20
5548666.268
 10
389738.142
 20
5548664.7
 10
389738.854
 20
5548663.167
 10
389739.644
 20
5548661.674
 10
389740.514
 20
5548660.225
 10
389741.458
 20
5548658.823
 10
389743.561
 20
5548656.18
 10
389744.714
 20
5548654.944
 10
389745.931
 20
5548653.771
 10
389747.208
 20
5548652.665
 10
389748.542
 20
5548651.627
 10
389749.87
 20
5548650.701
 10
389754.961
 20
5548647.782
 10
389758.276
 20
5548653.397
 10
389757.096
 20
5548654.174
 10
389756.43
 20
5548654.654
 10
389755.846
 20
5548655.11
 10
389755.302
 20
5548655.559
 10
389754.572
 20
5548656.201
 10
389753.892
 20
5548656.867
 10
389752.901
 20
5548657.921
 10
389751.997
 20
5548659.005
 10
389751.506
 20
5548659.654
 10
389751.108
 20
5548660.213
 10
389750.318
 20
5548661.437
 10
389749.941
 20
5548662.093
 10
389749.732
 20
5548662.473
 10
389749.105
 20
5548663.73
 10
389748.628
 20
5548664.836
 10
389747.975
 20
5548666.64
 10
389747.603
 20
5548668.194
 10
389747.441
 20
5548669.509
 10
389747.499
 20
5548671.631
 10
389747.801
 20
5548673.241
 10
389748.198
 20
5548674.5
 10
389749.492
 20
5548676.997
 10
389751.637
 20
5548679.376
 10
389753.7
 20
5548680.794
 10
389756.435
 20
5548681.867
 10
389759.195
 20
5548682.236
 10
389763.618
 20
5548681.612
 10
389768.868
 20
5548679.907
 10
389773.802
 20
5548677.723
 10
389767.523
 20
5548680.932
 10
389764.444
 20
5548682.502
 10
389762.144
 20
5548683.614
 10
389760.702
 20
5548684.281
 10
389758.659
 20
5548685.209
 10
389754.701
 20
5548686.873
 10
389750.18
 20
5548688.615
 10
389746.69
 20
5548689.844
 10
389743.116
 20
5548690.999
 10
389739.283
 20
5548692.122
 10
389734.847
 20
5548693.271
 10
389733.002
 20
5548693.717
 10
389730.09
 20
5548694.603
 10
389720.21
 20
5548696.294
  0
LWPOLYLINE
  5
98
100
AcDbEntity
  8
01_PM_S_F_Angleichung_Asphalt_
100
AcDbPolyline
 62
8
 90
9
 70
1
 10
389754.961
 20
5548647.782
 10
389763.077
 20
5548643.129
 10
389790.229
 20
5548627.563
 10
389793.212
 20
5548626.025
 10
389796.383
 20
5548631.395
 10
389793.541
 20
5548633.194
 10
389778.171
 20
5548641.987
 10
389758.276
 20
5548653.397
 10
389754.961
 20
5548647.782
  0
LWPOLYLINE
  5
99
100
AcDbEntity
  8
01_AXR_S_V_T_Tangenten_5
100
AcDbPolyline
 62
5
 90
2
 70
0
 10
389827.25
 20
5548594.681
 10
389824.791
 20
5548599.607
  0
LWPOLYLINE
  5
9A
100
AcDbEntity
  8
01_AXR_S_V_T_Tangenten_5
100
AcDbPolyline
 62
5
 90
2
 70
0
 10
389860.733
 20
5548507.834
 10
389831.124
 20
5548586.178
  0
LWPOLYLINE
  5
9B
100
AcDbEntity
  8
01_AXR_S_V_T_Tangenten_5
100
AcDbPolyline
 62
5
 90
2
 70
0
 10
389929.942
 20
5548301.057
 10
389881.458
 20
5548438.603
  0
LWPOLYLINE
  5
9C
100
AcDbEntity
  8
01_AXR_S_V_T_Tangenten_5
100
AcDbPolyline
 62
5
 90
2
 70
0
 10
389798.43
 20
5548626.602
 10
389778.826
 20
5548637.846
  0
LWPOLYLINE
  5
9D
100
AcDbEntity
  8
01_AXR_S_V_T_Tangenten_5
100
AcDbPolyline
 62
5
 90
2
 70
0
 10
389881.458
 20
5548438.603
 10
389860.733
 20
5548507.834
  0
LWPOLYLINE
  5
9E
100
AcDbEntity
  8
01_AXR_S_V_T_Tangenten_5
100
AcDbPolyline
 62
5
 90
2
 70
0
 10
389821.248
 20
5548605.088
 10
389810.932
 20
5548616.809
  0
LWPOLYLINE
  5
9F
100
AcDbEntity
  8
01_AXR_S_V_T_Tangenten_5
100
AcDbPolyline
 62
5
 90
2
 70
0
 10
389831.124
 20
5548586.178
 10
389827.25
 20
5548594.681
  0
LWPOLYLINE
  5
A0
100
AcDbEntity
  8
01_AXR_S_V_T_Tangenten_5
100
AcDbPolyline
 62
5
 90
2
 70
0
 10
389824.791
 20
5548599.607
 10
389821.248
 20
5548605.088
  0
LWPOLYLINE
  5
A1
100
AcDbEntity
  8
01_AXR_S_V_T_Tangenten_5
100
AcDbPolyline
 62
5
 90
2
 70
0
 10
389810.932
 20
5548616.809
 10
389803.363
 20
5548623.18
  0
LWPOLYLINE
  5
A2
100
AcDbEntity
  8
01_AXR_S_V_T_Tangenten_5
100
AcDbPolyline
 62
5
 90
2
 70
0
 10
389803.363
 20
5548623.18
 10
389798.43
 20
5548626.602
  0
LWPOLYLINE
  5
A3
100
AcDbEntity
  8
01_AXR_S_V_T_Tangenten2_5
100
AcDbPolyline
 62
5
 90
2
 70
0
 10
389814.87
 20
5548612.335
 10
389817.408
 20
5548614.634
  0
LWPOLYLINE
  5
A4
100
AcDbEntity
  8
01_AXR_S_V_T_Tangenten2_5
100
AcDbPolyline
 62
5
 90
2
 70
0
 10
389714.306
 20
5548574.115
 10
389808.51
 20
5548606.488
  0
LWPOLYLINE
  5
A5
100
AcDbEntity
  8
01_AXR_S_V_T_Tangenten2_5
100
AcDbPolyline
 62
5
 90
2
 70
0
 10
389808.51
 20
5548606.488
 10
389814.87
 20
5548612.335
  0
LWPOLYLINE
  5
A6
100
AcDbEntity
  8
01_AXR_S_V_T_Tangenten1_5
100
AcDbPolyline
 62
5
 90
2
 70
0
 10
389875.742
 20
5548457.698
 10
389878.572
 20
5548459.036
  0
LWPOLYLINE
  5
A7
100
AcDbEntity
  8
01_AXR_S_V_T_Tangenten1_5
100
AcDbPolyline
 62
5
 90
2
 70
0
 10
389694.718
 20
5548372.451
 10
389702.256
 20
5548375.705
  0
LWPOLYLINE
  5
A8
100
AcDbEntity
  8
01_AXR_S_V_T_Tangenten1_5
100
AcDbPolyline
 62
5
 90
2
 70
0
 10
389702.256
 20
5548375.705
 10
389875.742
 20
5548457.698
  0
LWPOLYLINE
  5
A9
100
AcDbEntity
  8
01_AXR_S_V_T_Elemente_5
100
AcDbPolyline
 62
1
 90
2
 70
0
 10
389929.942
 20
5548301.057
 10
389881.618
 20
5548438.15
  0
LWPOLYLINE
  5
AA
100
AcDbEntity
  8
01_AXR_S_V_T_Elemente_5
100
AcDbPolyline
 62
1
 90
6
 70
0
 10
389881.32
 20
5548439.063
 10
389881.376
 20
5548438.88
 10
389881.434
 20
5548438.696
 10
389881.493
 20
5548438.514
 10
389881.555
 20
5548438.332
 10
389881.618
 20
5548438.15
  0
LWPOLYLINE
  5
AB
100
AcDbEntity
  8
01_AXR_S_V_T_Elemente_5
100
AcDbPolyline
 62
1
 90
2
 70
0
 10
389881.32
 20
5548439.063
 10
389861.208
 20
5548506.247
  0
LWPOLYLINE
  5
AC
100
AcDbEntity
  8
01_AXR_S_V_T_Elemente_5
100
AcDbPolyline
 62
1
 90
21
 70
0
 10
389828.679
 20
5548591.544
 10
389828.536
 20
5548591.858
 10
389828.393
 20
5548592.171
 10
389828.248
 20
5548592.484
 10
389828.103
 20
5548592.797
 10
389827.958
 20
5548593.109
 10
389827.812
 20
5548593.421
 10
389827.665
 20
5548593.733
 10
389827.518
 20
5548594.045
 10
389827.371
 20
5548594.356
 10
389827.223
 20
5548594.668
 10
389827.074
 20
5548594.978
 10
389826.925
 20
5548595.289
 10
389826.775
 20
5548595.6
 10
389826.624
 20
5548595.91
 10
389826.473
 20
5548596.219
 10
389826.322
 20
5548596.529
 10
389826.17
 20
5548596.838
 10
389826.017
 20
5548597.147
 10
389825.864
 20
5548597.456
 10
389825.71
 20
5548597.765
  0
LWPOLYLINE
  5
AD
100
AcDbEntity
  8
01_AXR_S_V_T_Elemente_5
100
AcDbPolyline
 62
1
 90
2
 70
0
 10
389825.71
 20
5548597.765
 10
389824.791
 20
5548599.607
  0
LWPOLYLINE
  5
AE
100
AcDbEntity
  8
01_AXR_S_V_T_Elemente_5
100
AcDbPolyline
 62
1
 90
11
 70
0
 10
389861.208
 20
5548506.247
 10
389861.112
 20
5548506.564
 10
389861.014
 20
5548506.88
 10
389860.913
 20
5548507.196
 10
389860.811
 20
5548507.511
 10
389860.706
 20
5548507.825
 10
389860.598
 20
5548508.138
 10
389860.489
 20
5548508.451
 10
389860.377
 20
5548508.763
 10
389860.263
 20
5548509.074
 10
389860.147
 20
5548509.385
  0
LWPOLYLINE
  5
AF
100
AcDbEntity
  8
01_AXR_S_V_T_Elemente_5
100
AcDbPolyline
 62
1
 90
21
 70
0
 10
389833.209
 20
5548580.662
 10
389833
 20
5548581.213
 10
389832.789
 20
5548581.764
 10
389832.576
 20
5548582.313
 10
389832.361
 20
5548582.862
 10
389832.144
 20
5548583.41
 10
389831.926
 20
5548583.958
 10
389831.706
 20
5548584.505
 10
389831.484
 20
5548585.051
 10
389831.26
 20
5548585.596
 10
389831.034
 20
5548586.141
 10
389830.807
 20
5548586.684
 10
389830.578
 20
5548587.228
 10
389830.347
 20
5548587.77
 10
389830.114
 20
5548588.311
 10
389829.879
 20
5548588.852
 10
389829.643
 20
5548589.392
 10
389829.405
 20
5548589.931
 10
389829.165
 20
5548590.47
 10
389828.923
 20
5548591.007
 10
389828.679
 20
5548591.544
  0
LWPOLYLINE
  5
B0
100
AcDbEntity
  8
01_AXR_S_V_T_Elemente_5
100
AcDbPolyline
 62
1
 90
2
 70
0
 10
389821.248
 20
5548605.088
 10
389810.932
 20
5548616.809
  0
LWPOLYLINE
  5
B1
100
AcDbEntity
  8
01_AXR_S_V_T_Elemente_5
100
AcDbPolyline
 62
1
 90
2
 70
0
 10
389810.932
 20
5548616.809
 10
389803.363
 20
5548623.18
  0
LWPOLYLINE
  5
B2
100
AcDbEntity
  8
01_AXR_S_V_T_Elemente_5
100
AcDbPolyline
 62
1
 90
2
 70
0
 10
389798.43
 20
5548626.602
 10
389778.826
 20
5548637.846
  0
LWPOLYLINE
  5
B3
100
AcDbEntity
  8
01_AXR_S_V_T_Elemente_5
100
AcDbPolyline
 62
1
 90
2
 70
0
 10
389803.363
 20
5548623.18
 10
389798.43
 20
5548626.602
  0
LWPOLYLINE
  5
B4
100
AcDbEntity
  8
01_AXR_S_V_T_Elemente_5
100
AcDbPolyline
 62
1
 90
2
 70
0
 10
389860.147
 20
5548509.385
 10
389833.209
 20
5548580.662
  0
LWPOLYLINE
  5
B5
100
AcDbEntity
  8
01_AXR_S_V_T_Elemente_5
100
AcDbPolyline
 62
1
 90
2
 70
0
 10
389824.791
 20
5548599.607
 10
389821.248
 20
5548605.088
  0
LWPOLYLINE
  5
B6
100
AcDbEntity
  8
01_AXR_S_V_T_Elemente2_5
100
AcDbPolyline
 62
1
 90
2
 70
0
 10
389714.306
 20
5548574.115
 10
389806.927
 20
5548605.944
  0
LWPOLYLINE
  5
B7
100
AcDbEntity
  8
01_AXR_S_V_T_Elemente2_5
100
AcDbPolyline
 62
1
 90
2
 70
0
 10
389809.742
 20
5548607.62
 10
389814.87
 20
5548612.335
  0
LWPOLYLINE
  5
B8
100
AcDbEntity
  8
01_AXR_S_V_T_Elemente2_5
100
AcDbPolyline
 62
1
 90
2
 70
0
 10
389814.87
 20
5548612.335
 10
389817.408
 20
5548614.634
  0
LWPOLYLINE
  5
B9
100
AcDbEntity
  8
01_AXR_S_V_T_Elemente2_5
100
AcDbPolyline
 62
1
 90
6
 70
0
 10
389806.927
 20
5548605.944
 10
389807.542
 20
5548606.184
 10
389808.134
 20
5548606.473
 10
389808.701
 20
5548606.811
 10
389809.238
 20
5548607.194
 10
389809.742
 20
5548607.62
  0
LWPOLYLINE
  5
BA
100
AcDbEntity
  8
01_AXR_S_V_T_Elemente1_5
100
AcDbPolyline
 62
1
 90
2
 70
0
 10
389694.718
 20
5548372.451
 10
389702.256
 20
5548375.705
  0
LWPOLYLINE
  5
BB
100
AcDbEntity
  8
01_AXR_S_V_T_Elemente1_5
100
AcDbPolyline
 62
1
 90
2
 70
0
 10
389874.327
 20
5548457.029
 10
389875.27
 20
5548457.475
  0
LWPOLYLINE
  5
BC
100
AcDbEntity
  8
01_AXR_S_V_T_Elemente1_5
100
AcDbPolyline
 62
1
 90
2
 70
0
 10
389702.256
 20
5548375.705
 10
389874.327
 20
5548457.029
  0
LWPOLYLINE
  5
BD
100
AcDbEntity
  8
01_AXR_S_V_T_Elemente1_5
100
AcDbPolyline
 62
1
 90
2
 70
0
 10
389876.214
 20
5548457.921
 10
389877.157
 20
5548458.367
  0
LWPOLYLINE
  5
BE
100
AcDbEntity
  8
01_AXR_S_V_T_Elemente1_5
100
AcDbPolyline
 62
1
 90
41
 70
0
 10
389875.27
 20
5548457.475
 10
389875.294
 20
5548457.486
 10
389875.317
 20
5548457.497
 10
389875.341
 20
5548457.508
 10
389875.364
 20
5548457.52
 10
389875.388
 20
5548457.531
 10
389875.412
 20
5548457.542
 10
389875.435
 20
5548457.553
 10
389875.459
 20
5548457.564
 10
389875.482
 20
5548457.575
 10
389875.506
 20
5548457.587
 10
389875.53
 20
5548457.598
 10
389875.553
 20
5548457.609
 10
389875.577
 20
5548457.62
 10
389875.6
 20
5548457.631
 10
389875.624
 20
5548457.642
 10
389875.647
 20
5548457.653
 10
389875.671
 20
5548457.665
 10
389875.695
 20
5548457.676
 10
389875.718
 20
5548457.687
 10
389875.742
 20
5548457.698
 10
389875.765
 20
5548457.709
 10
389875.789
 20
5548457.72
 10
389875.813
 20
5548457.731
 10
389875.836
 20
5548457.743
 10
389875.86
 20
5548457.754
 10
389875.883
 20
5548457.765
 10
389875.907
 20
5548457.776
 10
389875.931
 20
5548457.787
 10
389875.954
 20
5548457.798
 10
389875.978
 20
5548457.809
 10
389876.001
 20
5548457.821
 10
389876.025
 20
5548457.832
 10
389876.048
 20
5548457.843
 10
389876.072
 20
5548457.854
 10
389876.096
 20
5548457.865
 10
389876.119
 20
5548457.876
 10
389876.143
 20
5548457.888
 10
389876.166
 20
5548457.899
 10
389876.19
 20
5548457.91
 10
389876.214
 20
5548457.921
  0
LWPOLYLINE
  5
BF
100
AcDbEntity
  8
01_AXR_S_V_T_Elemente1_5
100
AcDbPolyline
 62
1
 90
2
 70
0
 10
389877.157
 20
5548458.367
 10
389878.572
 20
5548459.036
  0
LWPOLYLINE
  5
C0
100
AcDbEntity
  8
01_AXR_S_V_T_B_Stationszeiger_
100
AcDbPolyline
 62
7
 90
2
 70
0
 10
389868.321
 20
5548491.204
 10
389869.04
 20
5548491.419
  0
LWPOLYLINE
  5
C1
100
AcDbEntity
  8
01_AXR_S_V_T_B_Stationszeiger_
100
AcDbPolyline
 62
7
 90
2
 70
0
 10
389875.491
 20
5548467.254
 10
389876.209
 20
5548467.469
  0
LWPOLYLINE
  5
C2
100
AcDbEntity
  8
01_AXR_S_V_T_B_Stationszeiger_
100
AcDbPolyline
 62
7
 90
2
 70
0
 10
389876.209
 20
5548467.469
 10
389883.394
 20
5548469.62
  0
LWPOLYLINE
  5
C3
100
AcDbEntity
  8
01_AXR_S_V_T_B_Stationszeiger_
100
AcDbPolyline
 62
7
 90
2
 70
0
 10
389803.75
 20
5548625.954
 10
389804.178
 20
5548626.57
  0
LWPOLYLINE
  5
C4
100
AcDbEntity
  8
01_AXR_S_V_T_B_Stationszeiger_
100
AcDbPolyline
 62
7
 90
2
 70
0
 10
389842.958
 20
5548561.938
 10
389843.66
 20
5548562.203
  0
LWPOLYLINE
  5
C5
100
AcDbEntity
  8
01_AXR_S_V_T_B_Stationszeiger_
100
AcDbPolyline
 62
7
 90
2
 70
0
 10
389861.336
 20
5548515.431
 10
389868.352
 20
5548518.083
  0
LWPOLYLINE
  5
C6
100
AcDbEntity
  8
01_AXR_S_V_T_B_Stationszeiger_
100
AcDbPolyline
 62
7
 90
2
 70
0
 10
389852.498
 20
5548538.817
 10
389859.514
 20
5548541.469
  0
LWPOLYLINE
  5
C7
100
AcDbEntity
  8
01_AXR_S_V_T_B_Stationszeiger_
100
AcDbPolyline
 62
7
 90
2
 70
0
 10
389851.797
 20
5548538.552
 10
389852.498
 20
5548538.817
  0
LWPOLYLINE
  5
C8
100
AcDbEntity
  8
01_AXR_S_V_T_B_Stationszeiger_
100
AcDbPolyline
 62
7
 90
2
 70
0
 10
389782.1
 20
5548638.85
 10
389782.474
 20
5548639.501
  0
LWPOLYLINE
  5
C9
100
AcDbEntity
  8
01_AXR_S_V_T_B_Stationszeiger_
100
AcDbPolyline
 62
7
 90
2
 70
0
 10
389879.802
 20
5548452.853
 10
389880.52
 20
5548453.068
  0
LWPOLYLINE
  5
CA
100
AcDbEntity
  8
01_AXR_S_V_T_B_Stationszeiger_
100
AcDbPolyline
 62
7
 90
2
 70
0
 10
389843.66
 20
5548562.203
 10
389850.676
 20
5548564.854
  0
LWPOLYLINE
  5
CB
100
AcDbEntity
  8
01_AXR_S_V_T_B_Stationszeiger_
100
AcDbPolyline
 62
7
 90
2
 70
0
 10
389860.635
 20
5548515.166
 10
389861.336
 20
5548515.431
  0
LWPOLYLINE
  5
CC
100
AcDbEntity
  8
01_AXR_S_V_T_B_Stationszeiger_
100
AcDbPolyline
 62
7
 90
2
 70
0
 10
389804.178
 20
5548626.57
 10
389808.453
 20
5548632.732
  0
LWPOLYLINE
  5
CD
100
AcDbEntity
  8
01_AXR_S_V_T_B_Stationszeiger_
100
AcDbPolyline
 62
7
 90
2
 70
0
 10
389796.03
 20
5548630.86
 10
389796.403
 20
5548631.511
  0
LWPOLYLINE
  5
CE
100
AcDbEntity
  8
01_AXR_S_V_T_B_Stationszeiger_
100
AcDbPolyline
 62
7
 90
2
 70
0
 10
389821.955
 20
5548608.069
 10
389822.518
 20
5548608.564
  0
LWPOLYLINE
  5
CF
100
AcDbEntity
  8
01_AXR_S_V_T_B_Stationszeiger_
100
AcDbPolyline
 62
7
 90
2
 70
0
 10
389834.752
 20
5548585.64
 10
389841.706
 20
5548588.45
  0
LWPOLYLINE
  5
D0
100
AcDbEntity
  8
01_AXR_S_V_T_B_Stationszeiger_
100
AcDbPolyline
 62
7
 90
2
 70
0
 10
389822.518
 20
5548608.564
 10
389828.148
 20
5548613.519
  0
LWPOLYLINE
  5
D1
100
AcDbEntity
  8
01_AXR_S_V_T_B_Stationszeiger_
100
AcDbPolyline
 62
7
 90
2
 70
0
 10
389880.52
 20
5548453.068
 10
389887.705
 20
5548455.219
  0
LWPOLYLINE
  5
D2
100
AcDbEntity
  8
01_AXR_S_V_T_B_Stationszeiger_
100
AcDbPolyline
 62
7
 90
2
 70
0
 10
389780.443
 20
5548640.665
 10
389784.174
 20
5548647.171
  0
LWPOLYLINE
  5
D3
100
AcDbEntity
  8
01_AXR_S_V_T_B_Stationszeiger_
100
AcDbPolyline
 62
7
 90
2
 70
0
 10
389869.04
 20
5548491.419
 10
389876.225
 20
5548493.57
  0
LWPOLYLINE
  5
D4
100
AcDbEntity
  8
01_AXR_S_V_T_B_Stationszeiger_
100
AcDbPolyline
 62
7
 90
2
 70
0
 10
389780.07
 20
5548640.015
 10
389780.443
 20
5548640.665
  0
LWPOLYLINE
  5
D5
100
AcDbEntity
  8
01_AXR_S_V_T_B_Stationszeiger_
100
AcDbPolyline
 62
7
 90
2
 70
0
 10
389796.403
 20
5548631.511
 10
389800.135
 20
5548638.017
  0
LWPOLYLINE
  5
D6
100
AcDbEntity
  8
01_AXR_S_V_T_B_Stationszeiger_
100
AcDbPolyline
 62
7
 90
2
 70
0
 10
389834.057
 20
5548585.359
 10
389834.752
 20
5548585.64
  0
LWPOLYLINE
  5
D7
100
AcDbEntity
  8
01_AXR_S_V_T_B_Stationszeiger_
100
AcDbPolyline
 62
7
 90
2
 70
0
 10
389782.474
 20
5548639.501
 10
389786.205
 20
5548646.006
  0
LWPOLYLINE
  5
D8
100
AcDbEntity
  8
01_AXR_S_V_T_B_Stationszeiger2
100
AcDbPolyline
 62
7
 90
2
 70
0
 10
389786.048
 20
5548596.125
 10
389786.291
 20
5548595.416
  0
LWPOLYLINE
  5
D9
100
AcDbEntity
  8
01_AXR_S_V_T_B_Stationszeiger2
100
AcDbPolyline
 62
7
 90
2
 70
0
 10
389762.405
 20
5548588
 10
389762.648
 20
5548587.291
  0
LWPOLYLINE
  5
DA
100
AcDbEntity
  8
01_AXR_S_V_T_B_Stationszeiger2
100
AcDbPolyline
 62
7
 90
2
 70
0
 10
389762.648
 20
5548587.291
 10
389765.086
 20
5548580.198
  0
LWPOLYLINE
  5
DB
100
AcDbEntity
  8
01_AXR_S_V_T_B_Stationszeiger2
100
AcDbPolyline
 62
7
 90
2
 70
0
 10
389810.159
 20
5548604.778
 10
389810.576
 20
5548604.154
  0
LWPOLYLINE
  5
DC
100
AcDbEntity
  8
01_AXR_S_V_T_B_Stationszeiger2
100
AcDbPolyline
 62
7
 90
2
 70
0
 10
389720.16
 20
5548573.483
 10
389720.404
 20
5548572.774
  0
LWPOLYLINE
  5
DD
100
AcDbEntity
  8
01_AXR_S_V_T_B_Stationszeiger2
100
AcDbPolyline
 62
7
 90
2
 70
0
 10
389720.404
 20
5548572.774
 10
389722.842
 20
5548565.681
  0
LWPOLYLINE
  5
DE
100
AcDbEntity
  8
01_AXR_S_V_T_B_Stationszeiger2
100
AcDbPolyline
 62
7
 90
2
 70
0
 10
389786.291
 20
5548595.416
 10
389788.729
 20
5548588.323
  0
LWPOLYLINE
  5
DF
100
AcDbEntity
  8
01_AXR_S_V_T_B_Stationszeiger2
100
AcDbPolyline
 62
7
 90
2
 70
0
 10
389810.576
 20
5548604.154
 10
389814.741
 20
5548597.918
  0
LWPOLYLINE
  5
E0
100
AcDbEntity
  8
01_AXR_S_V_T_B_Stationszeiger2
100
AcDbPolyline
 62
7
 90
2
 70
0
 10
389738.762
 20
5548579.876
 10
389739.006
 20
5548579.166
  0
LWPOLYLINE
  5
E1
100
AcDbEntity
  8
01_AXR_S_V_T_B_Stationszeiger2
100
AcDbPolyline
 62
7
 90
2
 70
0
 10
389739.006
 20
5548579.166
 10
389741.443
 20
5548572.073
  0
LWPOLYLINE
  5
E2
100
AcDbEntity
  8
01_AXR_S_V_T_B_Stationszeiger1
100
AcDbPolyline
 62
7
 90
2
 70
0
 10
389741.427
 20
5548390.623
 10
389744.632
 20
5548383.843
  0
LWPOLYLINE
  5
E3
100
AcDbEntity
  8
01_AXR_S_V_T_B_Stationszeiger1
100
AcDbPolyline
 62
7
 90
2
 70
0
 10
389809.235
 20
5548422.671
 10
389812.44
 20
5548415.89
  0
LWPOLYLINE
  5
E4
100
AcDbEntity
  8
01_AXR_S_V_T_B_Stationszeiger1
100
AcDbPolyline
 62
7
 90
2
 70
0
 10
389741.107
 20
5548391.301
 10
389741.427
 20
5548390.623
  0
LWPOLYLINE
  5
E5
100
AcDbEntity
  8
01_AXR_S_V_T_B_Stationszeiger1
100
AcDbPolyline
 62
7
 90
2
 70
0
 10
389786.312
 20
5548412.667
 10
389786.633
 20
5548411.988
  0
LWPOLYLINE
  5
E6
100
AcDbEntity
  8
01_AXR_S_V_T_B_Stationszeiger1
100
AcDbPolyline
 62
7
 90
2
 70
0
 10
389831.518
 20
5548434.032
 10
389831.838
 20
5548433.353
  0
LWPOLYLINE
  5
E7
100
AcDbEntity
  8
01_AXR_S_V_T_B_Stationszeiger1
100
AcDbPolyline
 62
7
 90
2
 70
0
 10
389879.641
 20
5548456.776
 10
389879.961
 20
5548456.097
  0
LWPOLYLINE
  5
E8
100
AcDbEntity
  8
01_AXR_S_V_T_B_Stationszeiger1
100
AcDbPolyline
 62
7
 90
2
 70
0
 10
389764.03
 20
5548401.306
 10
389767.235
 20
5548394.525
  0
LWPOLYLINE
  5
E9
100
AcDbEntity
  8
01_AXR_S_V_T_B_Stationszeiger1
100
AcDbPolyline
 62
7
 90
2
 70
0
 10
389718.824
 20
5548379.941
 10
389722.029
 20
5548373.16
  0
LWPOLYLINE
  5
EA
100
AcDbEntity
  8
01_AXR_S_V_T_B_Stationszeiger1
100
AcDbPolyline
 62
7
 90
2
 70
0
 10
389877.044
 20
5548454.719
 10
389880.248
 20
5548447.938
  0
LWPOLYLINE
  5
EB
100
AcDbEntity
  8
01_AXR_S_V_T_B_Stationszeiger1
100
AcDbPolyline
 62
7
 90
2
 70
0
 10
389876.723
 20
5548455.397
 10
389877.044
 20
5548454.719
  0
LWPOLYLINE
  5
EC
100
AcDbEntity
  8
01_AXR_S_V_T_B_Stationszeiger1
100
AcDbPolyline
 62
7
 90
2
 70
0
 10
389786.633
 20
5548411.988
 10
389789.837
 20
5548405.208
  0
LWPOLYLINE
  5
ED
100
AcDbEntity
  8
01_AXR_S_V_T_B_Stationszeiger1
100
AcDbPolyline
 62
7
 90
2
 70
0
 10
389763.709
 20
5548401.984
 10
389764.03
 20
5548401.306
  0
LWPOLYLINE
  5
EE
100
AcDbEntity
  8
01_AXR_S_V_T_B_Stationszeiger1
100
AcDbPolyline
 62
7
 90
2
 70
0
 10
389831.838
 20
5548433.353
 10
389835.043
 20
5548426.573
  0
LWPOLYLINE
  5
EF
100
AcDbEntity
  8
01_AXR_S_V_T_B_Stationszeiger1
100
AcDbPolyline
 62
7
 90
2
 70
0
 10
389718.504
 20
5548380.619
 10
389718.824
 20
5548379.941
  0
LWPOLYLINE
  5
F0
100
AcDbEntity
  8
01_AXR_S_V_T_B_Stationszeiger1
100
AcDbPolyline
 62
7
 90
2
 70
0
 10
389808.915
 20
5548423.349
 10
389809.235
 20
5548422.671
  0
LWPOLYLINE
  5
F1
100
AcDbEntity
  8
01_AXR_S_V_T_B_Stationszeiger1
100
AcDbPolyline
 62
7
 90
2
 70
0
 10
389695.709
 20
5548370.156
 10
389696.006
 20
5548369.468
  0
LWPOLYLINE
  5
F2
100
AcDbEntity
  8
01_AXR_S_V_T_B_Stationszeiger1
100
AcDbPolyline
 62
7
 90
2
 70
0
 10
389879.961
 20
5548456.097
 10
389883.166
 20
5548449.317
  0
LWPOLYLINE
  5
F3
100
AcDbEntity
  8
01_AXR_S_V_T_B_Stationszeiger1
100
AcDbPolyline
 62
7
 90
2
 70
0
 10
389696.006
 20
5548369.468
 10
389698.978
 20
5548362.582
  0
LWPOLYLINE
  5
F4
100
AcDbEntity
  8
01_AXR_S_V_T_B_Stationszeiger1
100
AcDbPolyline
 62
7
 90
2
 70
0
 10
389854.12
 20
5548444.714
 10
389854.441
 20
5548444.036
  0
LWPOLYLINE
  5
F5
100
AcDbEntity
  8
01_AXR_S_V_T_B_Stationszeiger1
100
AcDbPolyline
 62
7
 90
2
 70
0
 10
389854.441
 20
5548444.036
 10
389857.646
 20
5548437.255
  0
LWPOLYLINE
  5
F6
100
AcDbEntity
  8
01_AXR_S_V_T_B_Hauptpunktzeige
100
AcDbPolyline
 62
7
 90
2
 70
0
 10
389715.119
 20
5548571.751
 10
389715.769
 20
5548569.859
  0
LWPOLYLINE
  5
F7
100
AcDbEntity
  8
01_AXR_S_V_T_B_Hauptpunktzeige
100
AcDbPolyline
 62
7
 90
2
 70
0
 10
389819.86
 20
5548614.15
 10
389821.823
 20
5548613.763
  0
LWPOLYLINE
  5
F8
100
AcDbEntity
  8
01_AXR_S_V_T_B_Hauptpunktzeige
100
AcDbPolyline
 62
7
 90
2
 70
0
 10
389821.823
 20
5548613.763
 10
389829.181
 20
5548612.312
  0
LWPOLYLINE
  5
F9
100
AcDbEntity
  8
01_AXR_S_V_T_B_Hauptpunktzeige
100
AcDbPolyline
 62
7
 90
2
 70
0
 10
389715.769
 20
5548569.859
 10
389718.206
 20
5548562.766
  0
LWPOLYLINE
  5
FA
100
AcDbEntity
  8
01_AXR_Default_5
100
AcDbPolyline
 62
7
 90
2
 70
0
 10
389860.566
 20
5548447.096
 10
389880.372
 20
5548453.023
  0
LWPOLYLINE
  5
FB
100
AcDbEntity
  8
01_PM_S_Bordstein_5
100
AcDbPolyline
 62
7
 90
4
 70
0
 10
389800.474
 20
5548629.151
 10
389798.536
 20
5548630.329
 10
389797.732
 20
5548630.796
 10
389758.954
 20
5548652.982
  0
LWPOLYLINE
  5
FC
100
AcDbEntity
  8
01_PM_S_Bordstein_5
100
AcDbPolyline
 62
7
 90
2
 70
0
 10
389737.512
 20
5548666.268
 10
389738.142
 20
5548664.7
  0
LWPOLYLINE
  5
FD
100
AcDbEntity
  8
01_PM_S_Bordstein_5
100
AcDbPolyline
 62
7
 90
2
 70
0
 10
389719.098
 20
5548572.326
 10
389736.287
 20
5548578.232
  0
LWPOLYLINE
  5
FE
100
AcDbEntity
  8
01_PM_S_Bordstein_5
100
AcDbPolyline
 62
7
 90
2
 70
0
 10
389741.458
 20
5548658.823
 10
389742.475
 20
5548657.474
  0
LWPOLYLINE
  5
FF
100
AcDbEntity
  8
01_PM_S_Bordstein_5
100
AcDbPolyline
 62
7
 90
13
 70
0
 10
389820.707
 20
5548610.853
 10
389821.546
 20
5548609.931
 10
389822.477
 20
5548609.101
 10
389823.489
 20
5548608.372
 10
389824.571
 20
5548607.751
 10
389825.711
 20
5548607.247
 10
389826.898
 20
5548606.863
 10
389828.117
 20
5548606.605
 10
389829.358
 20
5548606.475
 10
389830.605
 20
5548606.474
 10
389831.845
 20
5548606.603
 10
389833.065
 20
5548606.859
 10
389834.252
 20
5548607.241
  0
LWPOLYLINE
  5
100
100
AcDbEntity
  8
01_PM_S_Bordstein_5
100
AcDbPolyline
 62
7
 90
11
 70
0
 10
389822.805
 20
5548596.309
 10
389822.63
 20
5548596.653
 10
389822.454
 20
5548596.996
 10
389822.274
 20
5548597.338
 10
389822.092
 20
5548597.678
 10
389821.907
 20
5548598.016
 10
389821.719
 20
5548598.353
 10
389821.529
 20
5548598.688
 10
389821.336
 20
5548599.022
 10
389821.14
 20
5548599.355
 10
389820.942
 20
5548599.686
  0
LWPOLYLINE
  5
101
100
AcDbEntity
  8
01_PM_S_Bordstein_5
100
AcDbPolyline
 62
7
 90
2
 70
0
 10
389856.945
 20
5548504.97
 10
389869.219
 20
5548463.97
  0
LWPOLYLINE
  5
102
100
AcDbEntity
  8
01_PM_S_Bordstein_5
100
AcDbPolyline
 62
7
 90
2
 70
0
 10
389742.475
 20
5548657.474
 10
389743.561
 20
5548656.18
  0
LWPOLYLINE
  5
103
100
AcDbEntity
  8
01_PM_S_Bordstein_5
100
AcDbPolyline
 62
7
 90
2
 70
0
 10
389719.645
 20
5548579.203
 10
389794.537
 20
5548604.958
  0
LWPOLYLINE
  5
104
100
AcDbEntity
  8
01_PM_S_Bordstein_5
100
AcDbPolyline
 62
7
 90
2
 70
0
 10
389735.534
 20
5548676.17
 10
389735.644
 20
5548674.484
  0
LWPOLYLINE
  5
105
100
AcDbEntity
  8
01_PM_S_Bordstein_5
100
AcDbPolyline
 62
7
 90
2
 70
0
 10
389738.854
 20
5548663.167
 10
389739.644
 20
5548661.674
  0
LWPOLYLINE
  5
106
100
AcDbEntity
  8
01_PM_S_Bordstein_5
100
AcDbPolyline
 62
7
 90
49
 70
0
 10
389796.459
 20
5548631.524
 10
389758.954
 20
5548652.982
 10
389757.772
 20
5548653.705
 10
389756.634
 20
5548654.494
 10
389755.543
 20
5548655.347
 10
389754.503
 20
5548656.262
 10
389753.519
 20
5548657.236
 10
389752.591
 20
5548658.265
 10
389751.725
 20
5548659.345
 10
389750.922
 20
5548660.474
 10
389750.187
 20
5548661.647
 10
389749.519
 20
5548662.86
 10
389748.923
 20
5548664.111
 10
389748.401
 20
5548665.393
 10
389747.955
 20
5548666.697
 10
389747.703
 20
5548667.642
 10
389747.529
 20
5548668.607
 10
389747.434
 20
5548669.581
 10
389747.42
 20
5548670.56
 10
389747.485
 20
5548671.537
 10
389747.629
 20
5548672.505
 10
389747.852
 20
5548673.459
 10
389748.153
 20
5548674.391
 10
389748.528
 20
5548675.295
 10
389748.976
 20
5548676.166
 10
389749.492
 20
5548676.997
 10
389750.076
 20
5548677.784
 10
389750.721
 20
5548678.52
 10
389751.425
 20
5548679.202
 10
389752.181
 20
5548679.823
 10
389752.986
 20
5548680.381
 10
389753.834
 20
5548680.871
 10
389754.718
 20
5548681.29
 10
389755.634
 20
5548681.637
 10
389756.576
 20
5548681.907
 10
389757.536
 20
5548682.1
 10
389758.508
 20
5548682.213
 10
389759.486
 20
5548682.246
 10
389760.465
 20
5548682.2
 10
389761.435
 20
5548682.075
 10
389761.527
 20
5548682.058
 10
389763.189
 20
5548681.72
 10
389764.833
 20
5548681.304
 10
389766.456
 20
5548680.811
 10
389768.054
 20
5548680.241
 10
389769.623
 20
5548679.597
 10
389771.16
 20
5548678.88
 10
389772.662
 20
5548678.091
 10
389773.395
 20
5548677.673
  0
LWPOLYLINE
  5
107
100
AcDbEntity
  8
01_PM_S_Bordstein_5
100
AcDbPolyline
 62
7
 90
4
 70
0
 10
389799.277
 20
5548627.245
 10
389797.386
 20
5548628.395
 10
389796.608
 20
5548628.847
 10
389757.837
 20
5548651.029
  0
LWPOLYLINE
  5
108
100
AcDbEntity
  8
01_PM_S_Bordstein_5
100
AcDbPolyline
 62
7
 90
2
 70
0
 10
389701.028
 20
5548378.551
 10
389862.565
 20
5548454.899
  0
LWPOLYLINE
  5
109
100
AcDbEntity
  8
01_PM_S_Bordstein_5
100
AcDbPolyline
 62
7
 90
2
 70
0
 10
389809.517
 20
5548603.556
 10
389736.238
 20
5548578.374
  0
LWPOLYLINE
  5
10A
100
AcDbEntity
  8
01_PM_S_Bordstein_5
100
AcDbPolyline
 62
7
 90
11
 70
0
 10
389884.159
 20
5548440.891
 10
389884.228
 20
5548440.661
 10
389884.299
 20
5548440.431
 10
389884.371
 20
5548440.201
 10
389884.444
 20
5548439.972
 10
389884.518
 20
5548439.743
 10
389884.593
 20
5548439.514
 10
389884.669
 20
5548439.286
 10
389884.746
 20
5548439.058
 10
389884.824
 20
5548438.831
 10
389884.904
 20
5548438.604
  0
LWPOLYLINE
  5
10B
100
AcDbEntity
  8
01_PM_S_Bordstein_5
100
AcDbPolyline
 62
7
 90
21
 70
0
 10
389830.163
 20
5548579.511
 10
389829.957
 20
5548580.052
 10
389829.75
 20
5548580.592
 10
389829.541
 20
5548581.132
 10
389829.33
 20
5548581.671
 10
389829.117
 20
5548582.21
 10
389828.903
 20
5548582.747
 10
389828.687
 20
5548583.284
 10
389828.469
 20
5548583.821
 10
389828.25
 20
5548584.356
 10
389828.028
 20
5548584.891
 10
389827.805
 20
5548585.426
 10
389827.581
 20
5548585.959
 10
389827.354
 20
5548586.492
 10
389827.126
 20
5548587.024
 10
389826.896
 20
5548587.555
 10
389826.664
 20
5548588.086
 10
389826.431
 20
5548588.615
 10
389826.196
 20
5548589.144
 10
389825.959
 20
5548589.673
 10
389825.72
 20
5548590.2
  0
LWPOLYLINE
  5
10C
100
AcDbEntity
  8
01_PM_S_Bordstein_5
100
AcDbPolyline
 62
7
 90
2
 70
0
 10
389809.566
 20
5548603.414
 10
389736.287
 20
5548578.232
  0
LWPOLYLINE
  5
10D
100
AcDbEntity
  8
01_PM_S_Bordstein_5
100
AcDbPolyline
 62
7
 90
2
 70
0
 10
389743.561
 20
5548656.18
 10
389744.714
 20
5548654.944
  0
LWPOLYLINE
  5
10E
100
AcDbEntity
  8
01_PM_S_Bordstein_5
100
AcDbPolyline
 62
7
 90
2
 70
0
 10
389719.098
 20
5548572.326
 10
389719.596
 20
5548579.345
  0
LWPOLYLINE
  5
10F
100
AcDbEntity
  8
01_PM_S_Bordstein_5
100
AcDbPolyline
 62
7
 90
11
 70
0
 10
389735.534
 20
5548676.17
 10
389735.152
 20
5548682.691
 10
389734.737
 20
5548685.715
 10
389734.203
 20
5548687.909
 10
389733.136
 20
5548689.866
 10
389731.95
 20
5548691.17
 10
389730.171
 20
5548692.653
 10
389727.503
 20
5548693.839
 10
389724.953
 20
5548694.787
 10
389721.751
 20
5548695.618
 10
389719.822
 20
5548696.097
  0
LWPOLYLINE
  5
110
100
AcDbEntity
  8
01_PM_S_Bordstein_5
100
AcDbPolyline
 62
7
 90
2
 70
0
 10
389744.714
 20
5548654.944
 10
389745.931
 20
5548653.771
  0
LWPOLYLINE
  5
111
100
AcDbEntity
  8
01_PM_S_Bordstein_5
100
AcDbPolyline
 62
7
 90
2
 70
0
 10
389739.644
 20
5548661.674
 10
389740.514
 20
5548660.225
  0
LWPOLYLINE
  5
112
100
AcDbEntity
  8
01_PM_S_Bordstein_5
100
AcDbPolyline
 62
7
 90
2
 70
0
 10
389831.639
 20
5548592.888
 10
389828.616
 20
5548599.22
  0
LWPOLYLINE
  5
113
100
AcDbEntity
  8
01_PM_S_Bordstein_5
100
AcDbPolyline
 62
7
 90
2
 70
0
 10
389852.43
 20
5548506.467
 10
389825.486
 20
5548577.743
  0
LWPOLYLINE
  5
114
100
AcDbEntity
  8
01_PM_S_Bordstein_5
100
AcDbPolyline
 62
7
 90
2
 70
0
 10
389831.503
 20
5548592.824
 10
389828.481
 20
5548599.155
  0
LWPOLYLINE
  5
115
100
AcDbEntity
  8
01_PM_S_Bordstein_5
100
AcDbPolyline
 62
7
 90
2
 70
0
 10
389708.402
 20
5548373.686
 10
389702.62
 20
5548370.625
  0
LWPOLYLINE
  5
116
100
AcDbEntity
  8
01_PM_S_Bordstein_5
100
AcDbPolyline
 62
7
 90
88
 70
0
 10
390140.969
 20
5548737.97
 10
390139.919
 20
5548737.648
 10
390137.558
 20
5548736.864
 10
390135.225
 20
5548736.001
 10
390132.923
 20
5548735.059
 10
390130.655
 20
5548734.04
 10
390128.42
 20
5548732.944
 10
390127.345
 20
5548732.406
 10
390125.313
 20
5548731.455
 10
390123.251
 20
5548730.573
 10
390121.158
 20
5548729.761
 10
390119.041
 20
5548729.02
 10
390116.898
 20
5548728.352
 10
390114.736
 20
5548727.755
 10
390109.143
 20
5548726.344
 10
390102.451
 20
5548724.732
 10
390095.741
 20
5548723.197
 10
390089.013
 20
5548721.739
 10
390082.268
 20
5548720.359
 10
390075.509
 20
5548719.057
 10
390068.734
 20
5548717.833
 10
390061.946
 20
5548716.688
 10
390055.145
 20
5548715.62
 10
390048.333
 20
5548714.63
 10
390041.509
 20
5548713.721
 10
390034.675
 20
5548712.89
 10
390027.833
 20
5548712.139
 10
390020.982
 20
5548711.465
 10
390014.123
 20
5548710.871
 10
390007.26
 20
5548710.356
 10
390006.778
 20
5548710.322
 10
390003.859
 20
5548710.066
 10
390000.949
 20
5548709.726
 10
389998.052
 20
5548709.305
 10
389995.167
 20
5548708.802
 10
389992.296
 20
5548708.216
 10
389989.444
 20
5548707.551
 10
389986.61
 20
5548706.804
 10
389947.065
 20
5548695.788
 10
389945.469
 20
5548695.3
 10
389943.838
 20
5548694.71
 10
389942.241
 20
5548694.036
 10
389940.679
 20
5548693.282
 10
389939.159
 20
5548692.447
 10
389937.684
 20
5548691.534
 10
389936.258
 20
5548690.548
 10
389934.885
 20
5548689.489
 10
389933.568
 20
5548688.36
 10
389932.311
 20
5548687.165
 10
389931.118
 20
5548685.906
 10
389929.991
 20
5548684.587
 10
389928.933
 20
5548683.213
 10
389927.949
 20
5548681.785
 10
389927.039
 20
5548680.309
 10
389926.206
 20
5548678.787
 10
389925.454
 20
5548677.225
 10
389924.781
 20
5548675.623
 10
389924.217
 20
5548674.208
 10
389923.152
 20
5548671.7
 10
389922.016
 20
5548669.223
 10
389920.812
 20
5548666.779
 10
389919.537
 20
5548664.369
 10
389918.196
 20
5548661.996
 10
389916.786
 20
5548659.663
 10
389915.314
 20
5548657.37
 10
389913.776
 20
5548655.12
 10
389912.175
 20
5548652.914
 10
389910.512
 20
5548650.755
 10
389908.789
 20
5548648.643
 10
389907.007
 20
5548646.58
 10
389905.167
 20
5548644.57
 10
389903.271
 20
5548642.611
 10
389901.321
 20
5548640.707
 10
389899.318
 20
5548638.86
 10
389897.263
 20
5548637.07
 10
389895.159
 20
5548635.338
 10
389893.005
 20
5548633.667
 10
389890.806
 20
5548632.057
 10
389888.561
 20
5548630.51
 10
389886.276
 20
5548629.027
 10
389883.947
 20
5548627.609
 10
389881.581
 20
5548626.259
 10
389879.176
 20
5548624.975
 10
389876.736
 20
5548623.759
 10
389874.263
 20
5548622.614
 10
389871.759
 20
5548621.538
 10
389869.226
 20
5548620.534
 10
389834.252
 20
5548607.241
  0
LWPOLYLINE
  5
117
100
AcDbEntity
  8
01_PM_S_Bordstein_5
100
AcDbPolyline
 62
7
 90
11
 70
0
 10
389822.056
 20
5548605.678
 10
389820.151
 20
5548608.192
 10
389818.155
 20
5548610.634
 10
389816.072
 20
5548613.003
 10
389813.904
 20
5548615.293
 10
389811.653
 20
5548617.504
 10
389809.324
 20
5548619.63
 10
389806.918
 20
5548621.67
 10
389804.439
 20
5548623.621
 10
389801.891
 20
5548625.48
 10
389799.277
 20
5548627.245
  0
LWPOLYLINE
  5
118
100
AcDbEntity
  8
01_PM_S_Bordstein_5
100
AcDbPolyline
 62
7
 90
21
 70
0
 10
389836.103
 20
5548581.756
 10
389835.89
 20
5548582.316
 10
389835.675
 20
5548582.876
 10
389835.459
 20
5548583.435
 10
389835.24
 20
5548583.994
 10
389835.02
 20
5548584.551
 10
389834.798
 20
5548585.108
 10
389834.574
 20
5548585.664
 10
389834.349
 20
5548586.22
 10
389834.121
 20
5548586.774
 10
389833.892
 20
5548587.328
 10
389833.661
 20
5548587.882
 10
389833.428
 20
5548588.434
 10
389833.194
 20
5548588.986
 10
389832.957
 20
5548589.537
 10
389832.719
 20
5548590.087
 10
389832.479
 20
5548590.636
 10
389832.238
 20
5548591.185
 10
389831.994
 20
5548591.733
 10
389831.749
 20
5548592.28
 10
389831.502
 20
5548592.826
  0
LWPOLYLINE
  5
119
100
AcDbEntity
  8
01_PM_S_Bordstein_5
100
AcDbPolyline
 62
7
 90
2
 70
0
 10
389752.835
 20
5548644.181
 10
389764.739
 20
5548664.343
  0
LWPOLYLINE
  5
11A
100
AcDbEntity
  8
01_PM_S_Bordstein_5
100
AcDbPolyline
 62
7
 90
88
 70
0
 10
390142.827
 20
5548731.898
 10
390141.848
 20
5548731.598
 10
390139.661
 20
5548730.872
 10
390137.531
 20
5548730.083
 10
390135.427
 20
5548729.223
 10
390133.355
 20
5548728.292
 10
390131.239
 20
5548727.254
 10
390130.112
 20
5548726.69
 10
390127.908
 20
5548725.658
 10
390125.648
 20
5548724.692
 10
390123.357
 20
5548723.803
 10
390121.036
 20
5548722.99
 10
390118.688
 20
5548722.259
 10
390116.358
 20
5548721.615
 10
390110.663
 20
5548720.179
 10
390103.903
 20
5548718.55
 10
390097.121
 20
5548716.998
 10
390090.322
 20
5548715.525
 10
390083.506
 20
5548714.13
 10
390076.673
 20
5548712.814
 10
390069.826
 20
5548711.578
 10
390062.967
 20
5548710.42
 10
390056.094
 20
5548709.341
 10
390049.208
 20
5548708.341
 10
390042.312
 20
5548707.422
 10
390035.405
 20
5548706.582
 10
390028.49
 20
5548705.823
 10
390021.566
 20
5548705.141
 10
390014.634
 20
5548704.542
 10
390007.72
 20
5548704.023
 10
390007.279
 20
5548703.992
 10
390004.506
 20
5548703.748
 10
390001.775
 20
5548703.429
 10
389999.054
 20
5548703.034
 10
389996.347
 20
5548702.562
 10
389993.651
 20
5548702.012
 10
389990.975
 20
5548701.388
 10
389988.272
 20
5548700.675
 10
389948.847
 20
5548689.693
 10
389947.478
 20
5548689.274
 10
389946.152
 20
5548688.795
 10
389944.858
 20
5548688.249
 10
389943.589
 20
5548687.636
 10
389942.36
 20
5548686.961
 10
389941.164
 20
5548686.22
 10
389940.006
 20
5548685.419
 10
389938.893
 20
5548684.561
 10
389937.824
 20
5548683.645
 10
389936.806
 20
5548682.677
 10
389935.838
 20
5548681.655
 10
389934.924
 20
5548680.586
 10
389934.067
 20
5548679.472
 10
389933.269
 20
5548678.314
 10
389932.531
 20
5548677.117
 10
389931.856
 20
5548675.883
 10
389931.245
 20
5548674.616
 10
389930.658
 20
5548673.218
 10
389930.089
 20
5548671.791
 10
389928.962
 20
5548669.136
 10
389927.752
 20
5548666.495
 10
389926.467
 20
5548663.889
 10
389925.108
 20
5548661.321
 10
389923.679
 20
5548658.792
 10
389922.177
 20
5548656.305
 10
389920.608
 20
5548653.862
 10
389918.967
 20
5548651.462
 10
389917.261
 20
5548649.111
 10
389915.488
 20
5548646.81
 10
389913.653
 20
5548644.559
 10
389911.753
 20
5548642.36
 10
389909.792
 20
5548640.218
 10
389907.772
 20
5548638.13
 10
389905.692
 20
5548636.1
 10
389903.557
 20
5548634.131
 10
389901.367
 20
5548632.223
 10
389899.123
 20
5548630.377
 10
389896.828
 20
5548628.596
 10
389894.484
 20
5548626.879
 10
389892.092
 20
5548625.231
 10
389889.656
 20
5548623.651
 10
389887.173
 20
5548622.138
 10
389884.65
 20
5548620.699
 10
389882.088
 20
5548619.331
 10
389879.487
 20
5548618.035
 10
389876.851
 20
5548616.814
 10
389874.183
 20
5548615.668
 10
389871.525
 20
5548614.614
 10
389840.795
 20
5548602.935
  0
LWPOLYLINE
  5
11B
100
AcDbEntity
  8
01_PM_S_Bordstein_5
100
AcDbPolyline
 62
7
 90
2
 70
0
 10
389719.213
 20
5548572.524
 10
389719.687
 20
5548579.218
  0
LWPOLYLINE
  5
11C
100
AcDbEntity
  8
01_PM_S_Bordstein_5
100
AcDbPolyline
 62
7
 90
88
 70
0
 10
390142.784
 20
5548732.041
 10
390141.803
 20
5548731.741
 10
390139.611
 20
5548731.013
 10
390137.476
 20
5548730.223
 10
390135.368
 20
5548729.361
 10
390133.291
 20
5548728.428
 10
390131.172
 20
5548727.388
 10
390130.047
 20
5548726.825
 10
390127.847
 20
5548725.795
 10
390125.591
 20
5548724.831
 10
390123.305
 20
5548723.944
 10
390120.989
 20
5548723.132
 10
390118.646
 20
5548722.403
 10
390116.32
 20
5548721.76
 10
390110.627
 20
5548720.325
 10
390103.869
 20
5548718.696
 10
390097.088
 20
5548717.145
 10
390090.291
 20
5548715.672
 10
390083.476
 20
5548714.278
 10
390076.646
 20
5548712.962
 10
390069.8
 20
5548711.726
 10
390062.943
 20
5548710.569
 10
390056.072
 20
5548709.489
 10
390049.188
 20
5548708.49
 10
390042.293
 20
5548707.571
 10
390035.388
 20
5548706.731
 10
390028.474
 20
5548705.972
 10
390021.553
 20
5548705.291
 10
390014.622
 20
5548704.692
 10
390007.71
 20
5548704.173
 10
390007.267
 20
5548704.142
 10
390004.49
 20
5548703.897
 10
390001.755
 20
5548703.578
 10
389999.031
 20
5548703.182
 10
389996.319
 20
5548702.709
 10
389993.619
 20
5548702.159
 10
389990.939
 20
5548701.534
 10
389988.233
 20
5548700.82
 10
389948.805
 20
5548689.836
 10
389947.431
 20
5548689.416
 10
389946.098
 20
5548688.935
 10
389944.796
 20
5548688.385
 10
389943.521
 20
5548687.769
 10
389942.284
 20
5548687.09
 10
389941.082
 20
5548686.346
 10
389939.917
 20
5548685.54
 10
389938.798
 20
5548684.677
 10
389937.724
 20
5548683.756
 10
389936.7
 20
5548682.783
 10
389935.727
 20
5548681.756
 10
389934.807
 20
5548680.681
 10
389933.946
 20
5548679.56
 10
389933.143
 20
5548678.396
 10
389932.401
 20
5548677.192
 10
389931.722
 20
5548675.952
 10
389931.108
 20
5548674.678
 10
389930.519
 20
5548673.275
 10
389929.951
 20
5548671.848
 10
389928.825
 20
5548669.197
 10
389927.616
 20
5548666.559
 10
389926.333
 20
5548663.958
 10
389924.977
 20
5548661.393
 10
389923.549
 20
5548658.868
 10
389922.049
 20
5548656.384
 10
389920.483
 20
5548653.945
 10
389918.845
 20
5548651.549
 10
389917.141
 20
5548649.201
 10
389915.371
 20
5548646.903
 10
389913.538
 20
5548644.656
 10
389911.641
 20
5548642.46
 10
389909.682
 20
5548640.32
 10
389907.665
 20
5548638.236
 10
389905.589
 20
5548636.209
 10
389903.457
 20
5548634.243
 10
389901.27
 20
5548632.338
 10
389899.03
 20
5548630.494
 10
389896.738
 20
5548628.716
 10
389894.397
 20
5548627.002
 10
389892.008
 20
5548625.356
 10
389889.577
 20
5548623.778
 10
389887.096
 20
5548622.267
 10
389884.577
 20
5548620.83
 10
389882.019
 20
5548619.464
 10
389879.422
 20
5548618.17
 10
389876.79
 20
5548616.951
 10
389874.126
 20
5548615.807
 10
389871.47
 20
5548614.754
 10
389840.741
 20
5548603.075
  0
LWPOLYLINE
  5
11D
100
AcDbEntity
  8
01_PM_S_Bordstein_5
100
AcDbPolyline
 62
7
 90
2
 70
0
 10
389864.322
 20
5548507.178
 10
389884.159
 20
5548440.891
  0
LWPOLYLINE
  5
11E
100
AcDbEntity
  8
01_PM_S_Bordstein_5
100
AcDbPolyline
 62
7
 90
2
 70
0
 10
389829.608
 20
5548591.919
 10
389826.586
 20
5548598.251
  0
LWPOLYLINE
  5
11F
100
AcDbEntity
  8
01_PM_S_Bordstein_5
100
AcDbPolyline
 62
7
 90
24
 70
0
 10
389794.529
 20
5548604.956
 10
389795.504
 20
5548605.23
 10
389796.488
 20
5548605.621
 10
389797.425
 20
5548606.113
 10
389798.307
 20
5548606.698
 10
389799.122
 20
5548607.373
 10
389799.862
 20
5548608.13
 10
389800.519
 20
5548608.959
 10
389801.088
 20
5548609.852
 10
389801.559
 20
5548610.799
 10
389801.93
 20
5548611.791
 10
389802.194
 20
5548612.815
 10
389802.351
 20
5548613.861
 10
389802.399
 20
5548614.918
 10
389802.336
 20
5548615.975
 10
389802.163
 20
5548617.019
 10
389801.882
 20
5548618.039
 10
389801.497
 20
5548619.025
 10
389801.011
 20
5548619.966
 10
389800.429
 20
5548620.85
 10
389799.759
 20
5548621.669
 10
389799.007
 20
5548622.413
 10
389798.182
 20
5548623.076
 10
389796.75
 20
5548623.997
  0
LWPOLYLINE
  5
120
100
AcDbEntity
  8
01_PM_S_Bordstein_5
100
AcDbPolyline
 62
7
 90
13
 70
0
 10
389820.942
 20
5548599.686
 10
389820.286
 20
5548600.531
 10
389819.542
 20
5548601.301
 10
389818.719
 20
5548601.986
 10
389817.828
 20
5548602.578
 10
389816.878
 20
5548603.071
 10
389815.88
 20
5548603.459
 10
389814.846
 20
5548603.737
 10
389813.789
 20
5548603.902
 10
389812.719
 20
5548603.952
 10
389811.651
 20
5548603.887
 10
389810.596
 20
5548603.707
 10
389809.566
 20
5548603.414
  0
LWPOLYLINE
  5
121
100
AcDbEntity
  8
01_PM_S_Bordstein_5
100
AcDbPolyline
 62
7
 90
11
 70
0
 10
389820.823
 20
5548610.948
 10
389819.031
 20
5548613.067
 10
389817.173
 20
5548615.128
 10
389815.252
 20
5548617.131
 10
389813.269
 20
5548619.072
 10
389811.226
 20
5548620.951
 10
389809.125
 20
5548622.765
 10
389806.969
 20
5548624.512
 10
389804.759
 20
5548626.19
 10
389802.498
 20
5548627.799
 10
389800.187
 20
5548629.336
  0
LWPOLYLINE
  5
122
100
AcDbEntity
  8
01_PM_S_Bordstein_5
100
AcDbPolyline
 62
7
 90
21
 70
0
 10
389825.486
 20
5548577.743
 10
389825.286
 20
5548578.269
 10
389825.085
 20
5548578.794
 10
389824.881
 20
5548579.319
 10
389824.676
 20
5548579.843
 10
389824.47
 20
5548580.366
 10
389824.262
 20
5548580.889
 10
389824.051
 20
5548581.411
 10
389823.84
 20
5548581.932
 10
389823.626
 20
5548582.453
 10
389823.411
 20
5548582.973
 10
389823.194
 20
5548583.492
 10
389822.976
 20
5548584.01
 10
389822.756
 20
5548584.528
 10
389822.534
 20
5548585.045
 10
389822.311
 20
5548585.562
 10
389822.085
 20
5548586.077
 10
389821.858
 20
5548586.592
 10
389821.63
 20
5548587.106
 10
389821.4
 20
5548587.62
 10
389821.168
 20
5548588.132
  0
LWPOLYLINE
  5
123
100
AcDbEntity
  8
01_PM_S_Bordstein_5
100
AcDbPolyline
 62
7
 90
2
 70
0
 10
389707.797
 20
5548374.893
 10
389695.95
 20
5548368.622
  0
LWPOLYLINE
  5
124
100
AcDbEntity
  8
01_PM_S_Bordstein_5
100
AcDbPolyline
 62
7
 90
2
 70
0
 10
389796.672
 20
5548623.868
 10
389749.87
 20
5548650.701
  0
LWPOLYLINE
  5
125
100
AcDbEntity
  8
01_PM_S_Bordstein_5
100
AcDbPolyline
 62
7
 90
24
 70
0
 10
389794.488
 20
5548605.1
 10
389795.456
 20
5548605.372
 10
389796.425
 20
5548605.757
 10
389797.348
 20
5548606.242
 10
389798.217
 20
5548606.819
 10
389799.02
 20
5548607.484
 10
389799.749
 20
5548608.229
 10
389800.397
 20
5548609.046
 10
389800.957
 20
5548609.926
 10
389801.421
 20
5548610.859
 10
389801.787
 20
5548611.836
 10
389802.047
 20
5548612.845
 10
389802.202
 20
5548613.876
 10
389802.249
 20
5548614.917
 10
389802.187
 20
5548615.958
 10
389802.016
 20
5548616.987
 10
389801.739
 20
5548617.992
 10
389801.36
 20
5548618.963
 10
389800.881
 20
5548619.89
 10
389800.308
 20
5548620.761
 10
389799.648
 20
5548621.568
 10
389798.907
 20
5548622.301
 10
389798.094
 20
5548622.954
 10
389796.672
 20
5548623.868
  0
LWPOLYLINE
  5
126
100
AcDbEntity
  8
01_PM_S_Bordstein_5
100
AcDbPolyline
 62
7
 90
2
 70
0
 10
389719.596
 20
5548579.345
 10
389794.488
 20
5548605.1
  0
LWPOLYLINE
  5
127
100
AcDbEntity
  8
01_PM_S_Bordstein_5
100
AcDbPolyline
 62
7
 90
2
 70
0
 10
389738.142
 20
5548664.7
 10
389738.854
 20
5548663.167
  0
LWPOLYLINE
  5
128
100
AcDbEntity
  8
01_PM_S_Bordstein_5
100
AcDbPolyline
 62
7
 90
2
 70
0
 10
389735.843
 20
5548672.806
 10
389736.13
 20
5548671.141
  0
LWPOLYLINE
  5
129
100
AcDbEntity
  8
01_PM_S_Bordstein_5
100
AcDbPolyline
 62
7
 90
2
 70
0
 10
389736.966
 20
5548667.867
 10
389737.512
 20
5548666.268
  0
LWPOLYLINE
  5
12A
100
AcDbEntity
  8
01_PM_S_Bordstein_5
100
AcDbPolyline
 62
7
 90
2
 70
0
 10
389747.208
 20
5548652.665
 10
389748.542
 20
5548651.627
  0
LWPOLYLINE
  5
12B
100
AcDbEntity
  8
01_PM_S_Bordstein_5
100
AcDbPolyline
 62
7
 90
15
 70
0
 10
389862.565
 20
5548454.899
 10
389863.65
 20
5548455.481
 10
389864.671
 20
5548456.17
 10
389865.618
 20
5548456.959
 10
389866.479
 20
5548457.84
 10
389867.247
 20
5548458.803
 10
389867.913
 20
5548459.84
 10
389868.471
 20
5548460.938
 10
389868.914
 20
5548462.087
 10
389869.24
 20
5548463.276
 10
389869.443
 20
5548464.491
 10
389869.522
 20
5548465.72
 10
389869.476
 20
5548466.951
 10
389869.305
 20
5548468.171
 10
389869.012
 20
5548469.368
  0
LWPOLYLINE
  5
12C
100
AcDbEntity
  8
01_PM_S_Bordstein_5
100
AcDbPolyline
 62
7
 90
2
 70
0
 10
389824.658
 20
5548589.638
 10
389821.7
 20
5548595.835
  0
LWPOLYLINE
  5
12D
100
AcDbEntity
  8
01_PM_S_Bordstein_5
100
AcDbPolyline
 62
7
 90
13
 70
0
 10
389821.065
 20
5548599.771
 10
389820.399
 20
5548600.629
 10
389819.644
 20
5548601.411
 10
389818.809
 20
5548602.106
 10
389817.904
 20
5548602.708
 10
389816.939
 20
5548603.208
 10
389815.927
 20
5548603.602
 10
389814.877
 20
5548603.884
 10
389813.804
 20
5548604.051
 10
389812.718
 20
5548604.102
 10
389811.634
 20
5548604.036
 10
389810.562
 20
5548603.853
 10
389809.517
 20
5548603.556
  0
LWPOLYLINE
  5
12E
100
AcDbEntity
  8
01_PM_S_Bordstein_5
100
AcDbPolyline
 62
7
 90
11
 70
0
 10
389828.482
 20
5548599.153
 10
389828.068
 20
5548599.963
 10
389827.64
 20
5548600.766
 10
389827.2
 20
5548601.562
 10
389826.746
 20
5548602.351
 10
389826.279
 20
5548603.132
 10
389825.799
 20
5548603.905
 10
389825.306
 20
5548604.67
 10
389824.801
 20
5548605.427
 10
389824.283
 20
5548606.175
 10
389823.753
 20
5548606.915
  0
LWPOLYLINE
  5
12F
100
AcDbEntity
  8
01_PM_S_Bordstein_5
100
AcDbPolyline
 62
7
 90
17
 70
0
 10
389877.555
 20
5548439.901
 10
389877.062
 20
5548441.094
 10
389876.448
 20
5548442.23
 10
389875.719
 20
5548443.295
 10
389874.882
 20
5548444.279
 10
389873.947
 20
5548445.169
 10
389872.925
 20
5548445.957
 10
389871.826
 20
5548446.635
 10
389870.662
 20
5548447.193
 10
389869.446
 20
5548447.627
 10
389868.191
 20
5548447.932
 10
389866.912
 20
5548448.104
 10
389865.621
 20
5548448.142
 10
389864.334
 20
5548448.044
 10
389863.063
 20
5548447.813
 10
389861.824
 20
5548447.451
 10
389860.63
 20
5548446.961
  0
LWPOLYLINE
  5
130
100
AcDbEntity
  8
01_PM_S_Bordstein_5
100
AcDbPolyline
 62
7
 90
2
 70
0
 10
389855.985
 20
5548507.811
 10
389829.04
 20
5548579.086
  0
LWPOLYLINE
  5
131
100
AcDbEntity
  8
01_PM_S_Bordstein_5
100
AcDbPolyline
 62
7
 90
2
 70
0
 10
389735.644
 20
5548674.484
 10
389735.843
 20
5548672.806
  0
LWPOLYLINE
  5
132
100
AcDbEntity
  8
01_PM_S_Bordstein_5
100
AcDbPolyline
 62
7
 90
2
 70
0
 10
389853.305
 20
5548503.881
 10
389866.874
 20
5548458.554
  0
LWPOLYLINE
  5
133
100
AcDbEntity
  8
01_PM_S_Bordstein_5
100
AcDbPolyline
 62
7
 90
2
 70
0
 10
389864.178
 20
5548507.135
 10
389884.015
 20
5548440.848
  0
LWPOLYLINE
  5
134
100
AcDbEntity
  8
01_PM_S_Bordstein_5
100
AcDbPolyline
 62
7
 90
2
 70
0
 10
389719.11
 20
5548572.488
 10
389736.238
 20
5548578.374
  0
LWPOLYLINE
  5
135
100
AcDbEntity
  8
01_PM_S_Bordstein_5
100
AcDbPolyline
 62
7
 90
11
 70
0
 10
389884.015
 20
5548440.848
 10
389884.085
 20
5548440.617
 10
389884.156
 20
5548440.386
 10
389884.228
 20
5548440.156
 10
389884.301
 20
5548439.926
 10
389884.375
 20
5548439.696
 10
389884.45
 20
5548439.467
 10
389884.527
 20
5548439.238
 10
389884.604
 20
5548439.01
 10
389884.683
 20
5548438.782
 10
389884.762
 20
5548438.554
  0
LWPOLYLINE
  5
136
100
AcDbEntity
  8
01_PM_S_Bordstein_5
100
AcDbPolyline
 62
7
 90
2
 70
0
 10
389821.26
 20
5548587.935
 10
389818.288
 20
5548594.162
  0
LWPOLYLINE
  5
137
100
AcDbEntity
  8
01_PM_S_Bordstein_5
100
AcDbPolyline
 62
7
 90
2
 70
0
 10
389694.157
 20
5548375.586
 10
389701.028
 20
5548378.551
  0
LWPOLYLINE
  5
138
100
AcDbEntity
  8
01_PM_S_Bordstein_5
100
AcDbPolyline
 62
7
 90
2
 70
0
 10
389863.047
 20
5548510.481
 10
389836.103
 20
5548581.756
  0
LWPOLYLINE
  5
139
100
AcDbEntity
  8
01_PM_S_Bordstein_5
100
AcDbPolyline
 62
7
 90
2
 70
0
 10
389857.248
 20
5548508.288
 10
389830.303
 20
5548579.564
  0
LWPOLYLINE
  5
13A
100
AcDbEntity
  8
01_PM_S_Bordstein_5
100
AcDbPolyline
 62
7
 90
21
 70
0
 10
389829.134
 20
5548579.122
 10
389828.931
 20
5548579.656
 10
389828.726
 20
5548580.19
 10
389828.52
 20
5548580.723
 10
389828.312
 20
5548581.256
 10
389828.102
 20
5548581.787
 10
389827.89
 20
5548582.319
 10
389827.677
 20
5548582.849
 10
389827.462
 20
5548583.379
 10
389827.245
 20
5548583.908
 10
389827.026
 20
5548584.436
 10
389826.806
 20
5548584.964
 10
389826.584
 20
5548585.491
 10
389826.361
 20
5548586.017
 10
389826.135
 20
5548586.543
 10
389825.908
 20
5548587.067
 10
389825.68
 20
5548587.592
 10
389825.449
 20
5548588.115
 10
389825.217
 20
5548588.637
 10
389824.984
 20
5548589.159
 10
389824.748
 20
5548589.68
  0
LWPOLYLINE
  5
13B
100
AcDbEntity
  8
01_PM_S_Bordstein_5
100
AcDbPolyline
 62
7
 90
2
 70
0
 10
389858.239
 20
5548505.358
 10
389869.012
 20
5548469.368
  0
LWPOLYLINE
  5
13C
100
AcDbEntity
  8
01_PM_S_Bordstein_5
100
AcDbPolyline
 62
7
 90
4
 70
0
 10
389800.394
 20
5548629.024
 10
389798.459
 20
5548630.2
 10
389797.657
 20
5548630.666
 10
389758.88
 20
5548652.852
  0
LWPOLYLINE
  5
13D
100
AcDbEntity
  8
01_PM_S_Bordstein_5
100
AcDbPolyline
 62
7
 90
11
 70
0
 10
389823.753
 20
5548606.915
 10
389821.799
 20
5548609.493
 10
389819.753
 20
5548611.997
 10
389817.617
 20
5548614.425
 10
389815.394
 20
5548616.774
 10
389813.086
 20
5548619.039
 10
389810.697
 20
5548621.219
 10
389808.23
 20
5548623.31
 10
389805.688
 20
5548625.31
 10
389803.075
 20
5548627.215
 10
389800.394
 20
5548629.024
  0
LWPOLYLINE
  5
13E
100
AcDbEntity
  8
01_PM_S_Bordstein_5
100
AcDbPolyline
 62
7
 90
11
 70
0
 10
389818.288
 20
5548594.162
 10
389817.741
 20
5548595.212
 10
389817.166
 20
5548596.246
 10
389816.563
 20
5548597.264
 10
389815.933
 20
5548598.265
 10
389815.275
 20
5548599.249
 10
389814.591
 20
5548600.215
 10
389813.881
 20
5548601.162
 10
389813.146
 20
5548602.089
 10
389812.385
 20
5548602.995
 10
389811.601
 20
5548603.881
  0
LWPOLYLINE
  5
13F
100
AcDbEntity
  8
01_PM_S_Bordstein_5
100
AcDbPolyline
 62
7
 90
2
 70
0
 10
389856.078
 20
5548507.846
 10
389829.134
 20
5548579.122
  0
LWPOLYLINE
  5
140
100
AcDbEntity
  8
01_PM_S_Bordstein_5
100
AcDbPolyline
 62
7
 90
2
 70
0
 10
389708.377
 20
5548373.674
 10
389865.944
 20
5548448.145
  0
LWPOLYLINE
  5
141
100
AcDbEntity
  8
01_PM_S_Bordstein_5
100
AcDbPolyline
 62
7
 90
2
 70
0
 10
389694.097
 20
5548375.723
 10
389700.966
 20
5548378.688
  0
LWPOLYLINE
  5
142
100
AcDbEntity
  8
01_PM_S_Bordstein_5
100
AcDbPolyline
 62
7
 90
11
 70
0
 10
389821.7
 20
5548595.835
 10
389821.325
 20
5548596.566
 10
389820.936
 20
5548597.29
 10
389820.536
 20
5548598.008
 10
389820.123
 20
5548598.718
 10
389819.697
 20
5548599.422
 10
389819.26
 20
5548600.117
 10
389818.81
 20
5548600.805
 10
389818.349
 20
5548601.485
 10
389817.876
 20
5548602.157
 10
389817.391
 20
5548602.821
  0
LWPOLYLINE
  5
143
100
AcDbEntity
  8
01_PM_S_Bordstein_5
100
AcDbPolyline
 62
7
 90
11
 70
0
 10
389822.939
 20
5548596.376
 10
389822.764
 20
5548596.722
 10
389822.587
 20
5548597.066
 10
389822.407
 20
5548597.408
 10
389822.224
 20
5548597.749
 10
389822.038
 20
5548598.088
 10
389821.85
 20
5548598.426
 10
389821.659
 20
5548598.763
 10
389821.466
 20
5548599.098
 10
389821.269
 20
5548599.431
 10
389821.071
 20
5548599.763
  0
LWPOLYLINE
  5
144
100
AcDbEntity
  8
01_PM_S_Bordstein_5
100
AcDbPolyline
 62
7
 90
2
 70
0
 10
389745.931
 20
5548653.771
 10
389747.208
 20
5548652.665
  0
LWPOLYLINE
  5
145
100
AcDbEntity
  8
01_PM_S_Bordstein_5
100
AcDbPolyline
 62
7
 90
2
 70
0
 10
389740.514
 20
5548660.225
 10
389741.458
 20
5548658.823
  0
LWPOLYLINE
  5
146
100
AcDbEntity
  8
01_PM_S_Bordstein_5
100
AcDbPolyline
 62
7
 90
2
 70
0
 10
389736.13
 20
5548671.141
 10
389736.505
 20
5548669.493
  0
LWPOLYLINE
  5
147
100
AcDbEntity
  8
01_PM_S_Bordstein_5
100
AcDbPolyline
 62
7
 90
2
 70
0
 10
389861.283
 20
5548477.229
 10
389864.079
 20
5548467.891
  0
LWPOLYLINE
  5
148
100
AcDbEntity
  8
01_PM_S_Bordstein_5
100
AcDbPolyline
 62
7
 90
21
 70
0
 10
389830.303
 20
5548579.564
 10
389830.097
 20
5548580.105
 10
389829.89
 20
5548580.646
 10
389829.681
 20
5548581.186
 10
389829.47
 20
5548581.726
 10
389829.257
 20
5548582.265
 10
389829.042
 20
5548582.803
 10
389828.826
 20
5548583.341
 10
389828.608
 20
5548583.877
 10
389828.388
 20
5548584.414
 10
389828.167
 20
5548584.949
 10
389827.944
 20
5548585.484
 10
389827.719
 20
5548586.018
 10
389827.492
 20
5548586.551
 10
389827.264
 20
5548587.083
 10
389827.033
 20
5548587.615
 10
389826.802
 20
5548588.146
 10
389826.568
 20
5548588.676
 10
389826.333
 20
5548589.206
 10
389826.096
 20
5548589.734
 10
389825.857
 20
5548590.262
  0
LWPOLYLINE
  5
149
100
AcDbEntity
  8
01_PM_S_Bordstein_5
100
AcDbPolyline
 62
7
 90
15
 70
0
 10
389862.5
 20
5548455.034
 10
389863.573
 20
5548455.609
 10
389864.581
 20
5548456.29
 10
389865.516
 20
5548457.069
 10
389866.366
 20
5548457.939
 10
389867.125
 20
5548458.891
 10
389867.783
 20
5548459.914
 10
389868.334
 20
5548460.999
 10
389868.772
 20
5548462.134
 10
389869.093
 20
5548463.308
 10
389869.294
 20
5548464.508
 10
389869.372
 20
5548465.722
 10
389869.326
 20
5548466.938
 10
389869.158
 20
5548468.143
 10
389868.869
 20
5548469.325
  0
LWPOLYLINE
  5
14A
100
AcDbEntity
  8
01_PM_S_Bordstein_5
100
AcDbPolyline
 62
7
 90
2
 70
0
 10
389748.542
 20
5548651.627
 10
389749.87
 20
5548650.701
  0
LWPOLYLINE
  5
14B
100
AcDbEntity
  8
01_PM_S_Bordstein_5
100
AcDbPolyline
 62
7
 90
2
 70
0
 10
389796.75
 20
5548623.997
 10
389793.212
 20
5548626.025
  0
LWPOLYLINE
  5
14C
100
AcDbEntity
  8
01_PM_S_Bordstein_5
100
AcDbPolyline
 62
7
 90
2
 70
0
 10
389857.107
 20
5548508.235
 10
389830.163
 20
5548579.511
  0
LWPOLYLINE
  5
14D
100
AcDbEntity
  8
01_PM_S_Bordstein_5
100
AcDbPolyline
 62
7
 90
2
 70
0
 10
389707.864
 20
5548374.759
 10
389860.63
 20
5548446.961
  0
LWPOLYLINE
  5
14E
100
AcDbEntity
  8
01_PM_S_Bordstein_5
100
AcDbPolyline
 62
7
 90
2
 70
0
 10
389858.095
 20
5548505.315
 10
389868.869
 20
5548469.325
  0
LWPOLYLINE
  5
14F
100
AcDbEntity
  8
01_PM_S_Bordstein_5
100
AcDbPolyline
 62
7
 90
11
 70
0
 10
389821.79
 20
5548595.879
 10
389821.423
 20
5548596.593
 10
389821.045
 20
5548597.3
 10
389820.655
 20
5548598.001
 10
389820.252
 20
5548598.696
 10
389819.839
 20
5548599.383
 10
389819.413
 20
5548600.063
 10
389818.976
 20
5548600.736
 10
389818.528
 20
5548601.402
 10
389818.069
 20
5548602.06
 10
389817.598
 20
5548602.71
  0
LWPOLYLINE
  5
150
100
AcDbEntity
  8
01_PM_S_Bordstein_5
100
AcDbPolyline
 62
7
 90
17
 70
0
 10
389877.696
 20
5548439.951
 10
389877.198
 20
5548441.159
 10
389876.576
 20
5548442.308
 10
389875.838
 20
5548443.386
 10
389874.991
 20
5548444.382
 10
389874.045
 20
5548445.283
 10
389873.01
 20
5548446.081
 10
389871.897
 20
5548446.766
 10
389870.719
 20
5548447.332
 10
389869.489
 20
5548447.771
 10
389868.219
 20
5548448.079
 10
389866.924
 20
5548448.254
 10
389865.618
 20
5548448.292
 10
389864.315
 20
5548448.193
 10
389863.029
 20
5548447.959
 10
389861.775
 20
5548447.592
 10
389860.566
 20
5548447.096
  0
LWPOLYLINE
  5
151
100
AcDbEntity
  8
01_PM_S_Bordstein_5
100
AcDbPolyline
 62
7
 90
2
 70
0
 10
389707.797
 20
5548374.893
 10
389860.566
 20
5548447.096
  0
LWPOLYLINE
  5
152
100
AcDbEntity
  8
01_PM_S_Bordstein_5
100
AcDbPolyline
 62
7
 90
2
 70
0
 10
389823.874
 20
5548607.003
 10
389820.823
 20
5548610.948
  0
LWPOLYLINE
  5
153
100
AcDbEntity
  8
01_PM_S_Bordstein_5
100
AcDbPolyline
 62
7
 90
2
 70
0
 10
389824.748
 20
5548589.68
 10
389821.79
 20
5548595.879
  0
LWPOLYLINE
  5
154
100
AcDbEntity
  8
01_PM_S_Bordstein_5
100
AcDbPolyline
 62
7
 90
16
 70
0
 10
389840.795
 20
5548602.935
 10
389839.639
 20
5548602.423
 10
389838.544
 20
5548601.791
 10
389837.522
 20
5548601.046
 10
389836.586
 20
5548600.197
 10
389835.745
 20
5548599.253
 10
389835.01
 20
5548598.224
 10
389834.389
 20
5548597.123
 10
389833.888
 20
5548595.962
 10
389833.514
 20
5548594.755
 10
389833.271
 20
5548593.514
 10
389833.161
 20
5548592.254
 10
389833.187
 20
5548590.99
 10
389833.346
 20
5548589.736
 10
389833.639
 20
5548588.506
 10
389834.06
 20
5548587.315
  0
LWPOLYLINE
  5
155
100
AcDbEntity
  8
01_PM_S_Bordstein_5
100
AcDbPolyline
 62
7
 90
21
 70
0
 10
389836.243
 20
5548581.809
 10
389836.03
 20
5548582.37
 10
389835.815
 20
5548582.93
 10
389835.598
 20
5548583.49
 10
389835.38
 20
5548584.048
 10
389835.159
 20
5548584.606
 10
389834.937
 20
5548585.164
 10
389834.713
 20
5548585.72
 10
389834.488
 20
5548586.276
 10
389834.26
 20
5548586.832
 10
389834.031
 20
5548587.386
 10
389833.799
 20
5548587.94
 10
389833.567
 20
5548588.493
 10
389833.332
 20
5548589.045
 10
389833.095
 20
5548589.596
 10
389832.857
 20
5548590.147
 10
389832.617
 20
5548590.697
 10
389832.375
 20
5548591.246
 10
389832.131
 20
5548591.794
 10
389831.886
 20
5548592.341
 10
389831.639
 20
5548592.888
  0
LWPOLYLINE
  5
156
100
AcDbEntity
  8
01_PM_S_Bordstein_5
100
AcDbPolyline
 62
7
 90
2
 70
0
 10
389736.505
 20
5548669.493
 10
389736.966
 20
5548667.867
  0
LWPOLYLINE
  5
157
100
AcDbEntity
  8
01_PM_S_Bordstein_5
100
AcDbPolyline
 62
7
 90
13
 70
0
 10
389820.823
 20
5548610.948
 10
389821.652
 20
5548610.037
 10
389822.571
 20
5548609.218
 10
389823.57
 20
5548608.498
 10
389824.638
 20
5548607.885
 10
389825.764
 20
5548607.387
 10
389826.936
 20
5548607.008
 10
389828.141
 20
5548606.753
 10
389829.366
 20
5548606.625
 10
389830.597
 20
5548606.624
 10
389831.822
 20
5548606.751
 10
389833.027
 20
5548607.004
 10
389834.199
 20
5548607.381
  0
LWPOLYLINE
  5
158
100
AcDbEntity
  8
01_PM_S_Bordstein_5
100
AcDbPolyline
 62
7
 90
16
 70
0
 10
389840.741
 20
5548603.075
 10
389839.571
 20
5548602.557
 10
389838.462
 20
5548601.917
 10
389837.427
 20
5548601.163
 10
389836.479
 20
5548600.303
 10
389835.628
 20
5548599.346
 10
389834.884
 20
5548598.305
 10
389834.254
 20
5548597.19
 10
389833.748
 20
5548596.014
 10
389833.369
 20
5548594.791
 10
389833.123
 20
5548593.535
 10
389833.012
 20
5548592.259
 10
389833.037
 20
5548590.979
 10
389833.199
 20
5548589.71
 10
389833.495
 20
5548588.464
 10
389833.922
 20
5548587.257
  0
LWPOLYLINE
  5
159
100
AcDbEntity
  8
01_PM_S_Bordstein_5
100
AcDbPolyline
 62
7
 90
88
 70
0
 10
390140.925
 20
5548738.113
 10
390139.873
 20
5548737.791
 10
390137.508
 20
5548737.006
 10
390135.171
 20
5548736.141
 10
390132.864
 20
5548735.197
 10
390130.591
 20
5548734.176
 10
390128.353
 20
5548733.078
 10
390127.28
 20
5548732.541
 10
390125.252
 20
5548731.592
 10
390123.194
 20
5548730.712
 10
390121.106
 20
5548729.902
 10
390118.994
 20
5548729.162
 10
390116.856
 20
5548728.496
 10
390114.698
 20
5548727.9
 10
390109.107
 20
5548726.49
 10
390102.417
 20
5548724.878
 10
390095.708
 20
5548723.343
 10
390088.982
 20
5548721.886
 10
390082.239
 20
5548720.506
 10
390075.481
 20
5548719.204
 10
390068.708
 20
5548717.981
 10
390061.922
 20
5548716.836
 10
390055.123
 20
5548715.768
 10
390048.312
 20
5548714.779
 10
390041.49
 20
5548713.87
 10
390034.658
 20
5548713.039
 10
390027.817
 20
5548712.288
 10
390020.968
 20
5548711.614
 10
390014.111
 20
5548711.021
 10
390007.249
 20
5548710.506
 10
390006.766
 20
5548710.472
 10
390003.844
 20
5548710.215
 10
390000.93
 20
5548709.875
 10
389998.028
 20
5548709.453
 10
389995.139
 20
5548708.949
 10
389992.264
 20
5548708.363
 10
389989.408
 20
5548707.697
 10
389986.571
 20
5548706.949
 10
389947.023
 20
5548695.932
 10
389945.422
 20
5548695.442
 10
389943.783
 20
5548694.85
 10
389942.179
 20
5548694.173
 10
389940.61
 20
5548693.415
 10
389939.083
 20
5548692.577
 10
389937.602
 20
5548691.66
 10
389936.169
 20
5548690.669
 10
389934.79
 20
5548689.605
 10
389933.467
 20
5548688.471
 10
389932.205
 20
5548687.271
 10
389931.006
 20
5548686.006
 10
389929.874
 20
5548684.682
 10
389928.812
 20
5548683.301
 10
389927.823
 20
5548681.867
 10
389926.909
 20
5548680.384
 10
389926.073
 20
5548678.856
 10
389925.317
 20
5548677.287
 10
389924.642
 20
5548675.68
 10
389924.078
 20
5548674.265
 10
389923.015
 20
5548671.761
 10
389921.881
 20
5548669.287
 10
389920.678
 20
5548666.847
 10
389919.405
 20
5548664.441
 10
389918.066
 20
5548662.072
 10
389916.659
 20
5548659.742
 10
389915.189
 20
5548657.453
 10
389913.653
 20
5548655.206
 10
389912.055
 20
5548653.004
 10
389910.394
 20
5548650.848
 10
389908.674
 20
5548648.739
 10
389906.895
 20
5548646.68
 10
389905.058
 20
5548644.673
 10
389903.165
 20
5548642.717
 10
389901.218
 20
5548640.816
 10
389899.218
 20
5548638.972
 10
389897.166
 20
5548637.184
 10
389895.065
 20
5548635.455
 10
389892.915
 20
5548633.787
 10
389890.719
 20
5548632.179
 10
389888.478
 20
5548630.635
 10
389886.196
 20
5548629.154
 10
389883.871
 20
5548627.738
 10
389881.508
 20
5548626.39
 10
389879.107
 20
5548625.108
 10
389876.671
 20
5548623.894
 10
389874.202
 20
5548622.751
 10
389871.702
 20
5548621.677
 10
389869.172
 20
5548620.674
 10
389834.199
 20
5548607.381
  0
LWPOLYLINE
  5
15A
100
AcDbEntity
  8
01_PM_S_Bordstein_5
100
AcDbPolyline
 62
7
 90
21
 70
0
 10
389829.04
 20
5548579.086
 10
389828.838
 20
5548579.62
 10
389828.633
 20
5548580.154
 10
389828.427
 20
5548580.687
 10
389828.219
 20
5548581.219
 10
389828.009
 20
5548581.75
 10
389827.797
 20
5548582.281
 10
389827.584
 20
5548582.811
 10
389827.369
 20
5548583.341
 10
389827.152
 20
5548583.869
 10
389826.934
 20
5548584.398
 10
389826.714
 20
5548584.925
 10
389826.492
 20
5548585.451
 10
389826.269
 20
5548585.977
 10
389826.044
 20
5548586.503
 10
389825.817
 20
5548587.027
 10
389825.589
 20
5548587.551
 10
389825.358
 20
5548588.074
 10
389825.126
 20
5548588.596
 10
389824.893
 20
5548589.117
 10
389824.658
 20
5548589.638
  0
LWPOLYLINE
  5
15B
100
AcDbEntity
  8
01_PM_S_Bordstein_5
100
AcDbPolyline
 62
7
 90
2
 70
0
 10
389825.908
 20
5548590.153
 10
389822.886
 20
5548596.485
  0
LWPOLYLINE
  5
15C
100
AcDbEntity
  8
01_PM_S_Bordstein_5
100
AcDbPolyline
 62
7
 90
2
 70
0
 10
389708.357
 20
5548373.775
 10
389865.706
 20
5548448.143
  0
LWPOLYLINE
  5
15D
100
AcDbEntity
  8
01_PM_S_Bordstein_5
100
AcDbPolyline
 62
7
 90
2
 70
0
 10
389790.723
 20
5548621.81
 10
389802.628
 20
5548641.972
  0
LWPOLYLINE
  5
15E
100
AcDbEntity
  8
01_PM_S_Bordstein_5
100
AcDbPolyline
 62
7
 90
2
 70
0
 10
389857.041
 20
5548504.999
 10
389869.254
 20
5548464.201
  0
LWPOLYLINE
  5
15F
100
AcDbEntity
  8
01_PM_S_Bordstein_5
100
AcDbPolyline
 62
7
 90
2
 70
0
 10
389700.966
 20
5548378.688
 10
389862.5
 20
5548455.034
  0
LWPOLYLINE
  5
160
100
AcDbEntity
  8
01_PM_S_Bordstein_5
100
AcDbPolyline
 62
7
 90
2
 70
0
 10
389708.357
 20
5548373.775
 10
389701.375
 20
5548370.079
  0
LWPOLYLINE
  5
161
100
AcDbEntity
  8
01_PM_S_Bordstein_5
100
AcDbPolyline
 62
7
 90
2
 70
0
 10
389863.187
 20
5548510.534
 10
389836.243
 20
5548581.809
  0
LWPOLYLINE
  5
162
100
AcDbEntity
  8
01_PM_S_Bordstein_5
100
AcDbPolyline
 62
7
 90
11
 70
0
 10
389828.616
 20
5548599.22
 10
389828.201
 20
5548600.032
 10
389827.772
 20
5548600.838
 10
389827.33
 20
5548601.636
 10
389826.875
 20
5548602.427
 10
389826.407
 20
5548603.21
 10
389825.925
 20
5548603.985
 10
389825.431
 20
5548604.753
 10
389824.925
 20
5548605.511
 10
389824.405
 20
5548606.262
 10
389823.874
 20
5548607.003
  0
LWPOLYLINE
  5
163
100
AcDbEntity
  8
01_PM_S_Bordstein_5
100
AcDbPolyline
 62
7
 90
2
 70
0
 10
389864.178
 20
5548507.135
 10
389874.92
 20
5548471.239
  0
LWPOLYLINE
  5
164
100
AcDbEntity
  8
01_PM_S_Bordstein_5
100
AcDbPolyline
 62
7
 90
2
 70
0
 10
389825.772
 20
5548590.088
 10
389822.75
 20
5548596.42
  0
LWPOLYLINE
  5
165
100
AcDbEntity
  8
01_PM_S_Bordstein_5
100
AcDbPolyline
 62
7
 90
2
 70
0
 10
389707.864
 20
5548374.759
 10
389696.02
 20
5548368.489
  0
LWPOLYLINE
  5
166
100
AcDbEntity
  8
01_PM_S_Bordstein_5
100
AcDbPolyline
 62
7
 90
11
 70
0
 10
389826.605
 20
5548598.212
 10
389826.206
 20
5548598.992
 10
389825.795
 20
5548599.764
 10
389825.371
 20
5548600.53
 10
389824.934
 20
5548601.288
 10
389824.485
 20
5548602.039
 10
389824.024
 20
5548602.783
 10
389823.55
 20
5548603.519
 10
389823.064
 20
5548604.247
 10
389822.566
 20
5548604.966
 10
389822.056
 20
5548605.678
  0
LWPOLYLINE
  5
167
100
AcDbEntity
  8
01_PM_Default_5
100
AcDbPolyline
 62
7
 90
2
 70
0
 10
389796.75
 20
5548623.997
 10
389800.043
 20
5548629.413
  0
LWPOLYLINE
  5
168
100
AcDbEntity
  8
01_PM_Default_5
100
AcDbPolyline
 62
7
 90
2
 70
0
 10
389822.55
 20
5548594.786
 10
389824.546
 20
5548596.124
  0
LWPOLYLINE
  5
169
100
AcDbEntity
  8
01_PM_Default_5
100
AcDbPolyline
 62
7
 90
11
 70
0
 10
389820.942
 20
5548599.686
 10
389820.724
 20
5548600.043
 10
389820.503
 20
5548600.399
 10
389820.278
 20
5548600.753
 10
389820.051
 20
5548601.105
 10
389819.82
 20
5548601.454
 10
389819.586
 20
5548601.802
 10
389819.35
 20
5548602.148
 10
389819.11
 20
5548602.492
 10
389818.868
 20
5548602.833
 10
389818.622
 20
5548603.173
  0
LWPOLYLINE
  5
16A
100
AcDbEntity
  8
01_PM_Default_5
100
AcDbPolyline
 62
7
 90
11
 70
0
 10
389818.622
 20
5548603.173
 10
389816.79
 20
5548605.591
 10
389814.869
 20
5548607.939
 10
389812.863
 20
5548610.215
 10
389810.774
 20
5548612.415
 10
389808.605
 20
5548614.537
 10
389806.36
 20
5548616.577
 10
389804.04
 20
5548618.533
 10
389801.651
 20
5548620.402
 10
389799.193
 20
5548622.181
 10
389796.672
 20
5548623.868
  0
LWPOLYLINE
  5
16B
100
AcDbEntity
  8
01_PM_Default_5
100
AcDbPolyline
 62
7
 90
2
 70
0
 10
389860.566
 20
5548447.096
 10
389880.372
 20
5548453.023
  0
LWPOLYLINE
  5
16C
100
AcDbEntity
  8
01_PM_B_Bemaszungshilfslinien_
100
AcDbPolyline
 62
7
 90
2
 70
0
 10
389827.4
 20
5548438.279
 10
389828.304
 20
5548438.706
  0
LWPOLYLINE
  5
16D
100
AcDbEntity
  8
01_PM_B_Bemaszungshilfslinien_
100
AcDbPolyline
 62
7
 90
2
 70
0
 10
389855.975
 20
5548494.963
 10
389855.688
 20
5548495.921
  0
LWPOLYLINE
  5
16E
100
AcDbEntity
  8
01_PM_B_Bemaszungshilfslinien_
100
AcDbPolyline
 62
7
 90
2
 70
0
 10
389860.811
 20
5548447.045
 10
389859.907
 20
5548446.618
  0
LWPOLYLINE
  5
16F
100
AcDbEntity
  8
01_PM_B_Bemaszungshilfslinien_
100
AcDbPolyline
 62
7
 90
2
 70
0
 10
389776.299
 20
5548592.151
 10
389775.354
 20
5548591.825
  0
LWPOLYLINE
  5
170
100
AcDbEntity
  8
01_PM_B_Bemaszungshilfslinien_
100
AcDbPolyline
 62
7
 90
2
 70
0
 10
389859.711
 20
5548496.081
 10
389859.424
 20
5548497.039
  0
LWPOLYLINE
  5
171
100
AcDbEntity
  8
01_PM_B_Bemaszungshilfslinien_
100
AcDbPolyline
 62
7
 90
2
 70
0
 10
389827.336
 20
5548438.415
 10
389828.24
 20
5548438.842
  0
LWPOLYLINE
  5
172
100
AcDbEntity
  8
01_PM_B_Bemaszungshilfslinien_
100
AcDbPolyline
 62
7
 90
2
 70
0
 10
389860.765
 20
5548496.397
 10
389860.478
 20
5548497.355
  0
LWPOLYLINE
  5
173
100
AcDbEntity
  8
01_PM_B_Bemaszungshilfslinien_
100
AcDbPolyline
 62
7
 90
2
 70
0
 10
389866.733
 20
5548498.6
 10
389867.019
 20
5548497.642
  0
LWPOLYLINE
  5
174
100
AcDbEntity
  8
01_PM_B_Bemaszungshilfslinien_
100
AcDbPolyline
 62
7
 90
2
 70
0
 10
389866.991
 20
5548498.26
 10
389866.704
 20
5548499.218
  0
LWPOLYLINE
  5
175
100
AcDbEntity
  8
01_PM_B_Bemaszungshilfslinien_
100
AcDbPolyline
 62
7
 90
2
 70
0
 10
389830.584
 20
5548431.543
 10
389831.488
 20
5548431.971
  0
LWPOLYLINE
  5
176
100
AcDbEntity
  8
01_PM_B_Bemaszungshilfslinien_
100
AcDbPolyline
 62
7
 90
2
 70
0
 10
389860.765
 20
5548496.397
 10
389860.478
 20
5548497.355
  0
LWPOLYLINE
  5
177
100
AcDbEntity
  8
01_PM_B_Bemaszungshilfslinien_
100
AcDbPolyline
 62
7
 90
2
 70
0
 10
389773.863
 20
5548598.007
 10
389774.808
 20
5548598.332
  0
LWPOLYLINE
  5
178
100
AcDbEntity
  8
01_PM_B_Bemaszungshilfslinien_
100
AcDbPolyline
 62
7
 90
2
 70
0
 10
389775.924
 20
5548592.012
 10
389776.87
 20
5548592.337
  0
LWPOLYLINE
  5
179
100
AcDbEntity
  8
01_PM_B_Bemaszungshilfslinien_
100
AcDbPolyline
 62
7
 90
2
 70
0
 10
389827.762
 20
5548438.449
 10
389826.858
 20
5548438.021
  0
LWPOLYLINE
  5
17A
100
AcDbEntity
  8
01_PM_B_Bemaszungshilfslinien_
100
AcDbPolyline
 62
7
 90
2
 70
0
 10
389860.746
 20
5548447.182
 10
389859.842
 20
5548446.755
  0
LWPOLYLINE
  5
17B
100
AcDbEntity
  8
01_PM_B_Bemaszungshilfslinien_
100
AcDbPolyline
 62
7
 90
2
 70
0
 10
389830.113
 20
5548432.538
 10
389831.018
 20
5548432.965
  0
LWPOLYLINE
  5
17C
100
AcDbEntity
  8
01_PM_B_Bemaszungshilfslinien_
100
AcDbPolyline
 62
7
 90
2
 70
0
 10
389774.29
 20
5548597.995
 10
389773.344
 20
5548597.67
  0
LWPOLYLINE
  5
17D
100
AcDbEntity
  8
01_PM_B_Bemaszungshilfslinien_
100
AcDbPolyline
 62
7
 90
2
 70
0
 10
389859.711
 20
5548496.081
 10
389859.424
 20
5548497.039
  0
LWPOLYLINE
  5
17E
100
AcDbEntity
  8
01_PM_B_Bemaszungshilfslinien_
100
AcDbPolyline
 62
7
 90
2
 70
0
 10
389860.796
 20
5548496.823
 10
389861.083
 20
5548495.865
  0
LWPOLYLINE
  5
17F
100
AcDbEntity
  8
01_PM_B_Bemaszungshilfslinien_
100
AcDbPolyline
 62
7
 90
2
 70
0
 10
389775.973
 20
5548591.87
 10
389776.919
 20
5548592.195
  0
LWPOLYLINE
  5
180
100
AcDbEntity
  8
01_PM_B_Bemaszungshilfslinien_
100
AcDbPolyline
 62
7
 90
2
 70
0
 10
389860.908
 20
5548496.44
 10
389860.622
 20
5548497.398
  0
LWPOLYLINE
  5
181
100
AcDbEntity
  8
01_PM_B_Bemaszungshilfslinien_
100
AcDbPolyline
 62
7
 90
2
 70
0
 10
389773.911
 20
5548597.865
 10
389774.857
 20
5548598.19
  0
LWPOLYLINE
  5
182
100
AcDbEntity
  8
01_PM_B_Bemaszungshilfslinien_
100
AcDbPolyline
 62
7
 90
2
 70
0
 10
389830.411
 20
5548432.845
 10
389829.507
 20
5548432.418
  0
LWPOLYLINE
  5
183
100
AcDbEntity
  8
01_PM_B_Bemaszungshilfslinien_
100
AcDbPolyline
 62
7
 90
2
 70
0
 10
389866.847
 20
5548498.217
 10
389866.561
 20
5548499.175
  0
LWPOLYLINE
  5
184
100
AcDbEntity
  8
01_PM_B_9_0_Gruenflaechen_oeff
100
AcDbPolyline
 62
7
 90
2
 70
0
 10
389754.963
 20
5548647.78
 10
389748.715
 20
5548637.045
  0
LWPOLYLINE
  5
185
100
AcDbEntity
  8
01_PM_B_9_0_Gruenflaechen_oeff
100
AcDbPolyline
 62
7
 90
2
 70
0
 10
389755.037
 20
5548634.378
 10
389775.174
 20
5548626.782
  0
LWPOLYLINE
  5
186
100
AcDbEntity
  8
01_PM_B_9_0_Gruenflaechen_oeff
100
AcDbPolyline
 62
7
 90
2
 70
0
 10
389797.919
 20
5548611.806
 10
389796.641
 20
5548610.266
  0
LWPOLYLINE
  5
187
100
AcDbEntity
  8
01_PM_B_9_0_Gruenflaechen_oeff
100
AcDbPolyline
 62
7
 90
2
 70
0
 10
389798.29
 20
5548606.883
 10
389799.09
 20
5548607.555
  0
LWPOLYLINE
  5
188
100
AcDbEntity
  8
01_PM_B_9_0_Gruenflaechen_oeff
100
AcDbPolyline
 62
7
 90
2
 70
0
 10
389802.139
 20
5548612.786
 10
389802.192
 20
5548613.78
  0
LWPOLYLINE
  5
189
100
AcDbEntity
  8
01_PM_B_9_0_Gruenflaechen_oeff
100
AcDbPolyline
 62
7
 90
2
 70
0
 10
389802.248
 20
5548614.905
 10
389802.185
 20
5548615.971
  0
LWPOLYLINE
  5
18A
100
AcDbEntity
  8
01_PM_B_9_0_Gruenflaechen_oeff
100
AcDbPolyline
 62
7
 90
2
 70
0
 10
389748.715
 20
5548637.045
 10
389755.037
 20
5548634.378
  0
LWPOLYLINE
  5
18B
100
AcDbEntity
  8
01_PM_B_9_0_Gruenflaechen_oeff
100
AcDbPolyline
 62
7
 90
2
 70
0
 10
389775.174
 20
5548626.782
 10
389786.857
 20
5548621.987
  0
LWPOLYLINE
  5
18C
100
AcDbEntity
  8
01_PM_B_9_0_Gruenflaechen_oeff
100
AcDbPolyline
 62
7
 90
2
 70
0
 10
389799.09
 20
5548607.555
 10
389799.764
 20
5548608.255
  0
LWPOLYLINE
  5
18D
100
AcDbEntity
  8
01_PM_B_9_0_Gruenflaechen_oeff
100
AcDbPolyline
 62
7
 90
2
 70
0
 10
389800.968
 20
5548609.948
 10
389801.413
 20
5548610.848
  0
LWPOLYLINE
  5
18E
100
AcDbEntity
  8
01_PM_B_9_0_Gruenflaechen_oeff
100
AcDbPolyline
 62
7
 90
2
 70
0
 10
389791.113
 20
5548607.468
 10
389786.525
 20
5548605.63
  0
LWPOLYLINE
  5
18F
100
AcDbEntity
  8
01_PM_B_9_0_Gruenflaechen_oeff
100
AcDbPolyline
 62
7
 90
2
 70
0
 10
389801.413
 20
5548610.848
 10
389801.799
 20
5548611.883
  0
LWPOLYLINE
  5
190
100
AcDbEntity
  8
01_PM_B_9_0_Gruenflaechen_oeff
100
AcDbPolyline
 62
7
 90
2
 70
0
 10
389786.857
 20
5548621.987
 10
389793.74
 20
5548619.052
  0
LWPOLYLINE
  5
191
100
AcDbEntity
  8
01_PM_B_9_0_Gruenflaechen_oeff
100
AcDbPolyline
 62
7
 90
2
 70
0
 10
389798.923
 20
5548622.406
 10
389797.942
 20
5548623.052
  0
LWPOLYLINE
  5
192
100
AcDbEntity
  8
01_PM_B_9_0_Gruenflaechen_oeff
100
AcDbPolyline
 62
7
 90
2
 70
0
 10
389801.799
 20
5548611.883
 10
389802.139
 20
5548612.786
  0
LWPOLYLINE
  5
193
100
AcDbEntity
  8
01_PM_B_9_0_Gruenflaechen_oeff
100
AcDbPolyline
 62
7
 90
2
 70
0
 10
389801.371
 20
5548618.935
 10
389800.919
 20
5548619.816
  0
LWPOLYLINE
  5
194
100
AcDbEntity
  8
01_PM_B_9_0_Gruenflaechen_oeff
100
AcDbPolyline
 62
7
 90
2
 70
0
 10
389794.474
 20
5548605.095
 10
389795.556
 20
5548605.412
  0
LWPOLYLINE
  5
195
100
AcDbEntity
  8
01_PM_B_9_0_Gruenflaechen_oeff
100
AcDbPolyline
 62
7
 90
2
 70
0
 10
389796.598
 20
5548617.757
 10
389797.973
 20
5548616.454
  0
LWPOLYLINE
  5
196
100
AcDbEntity
  8
01_PM_B_9_0_Gruenflaechen_oeff
100
AcDbPolyline
 62
7
 90
2
 70
0
 10
389797.46
 20
5548606.317
 10
389798.29
 20
5548606.883
  0
LWPOLYLINE
  5
197
100
AcDbEntity
  8
01_PM_B_9_0_Gruenflaechen_oeff
100
AcDbPolyline
 62
7
 90
2
 70
0
 10
389800.456
 20
5548609.139
 10
389800.968
 20
5548609.948
  0
LWPOLYLINE
  5
198
100
AcDbEntity
  8
01_PM_B_9_0_Gruenflaechen_oeff
100
AcDbPolyline
 62
7
 90
2
 70
0
 10
389797.973
 20
5548616.454
 10
389798.63
 20
5548614.639
  0
LWPOLYLINE
  5
199
100
AcDbEntity
  8
01_PM_B_9_0_Gruenflaechen_oeff
100
AcDbPolyline
 62
7
 90
2
 70
0
 10
389800.919
 20
5548619.816
 10
389800.232
 20
5548620.854
  0
LWPOLYLINE
  5
19A
100
AcDbEntity
  8
01_PM_B_9_0_Gruenflaechen_oeff
100
AcDbPolyline
 62
7
 90
2
 70
0
 10
389797.942
 20
5548623.052
 10
389797.258
 20
5548623.492
  0
LWPOLYLINE
  5
19B
100
AcDbEntity
  8
01_PM_B_9_0_Gruenflaechen_oeff
100
AcDbPolyline
 62
7
 90
2
 70
0
 10
389796.526
 20
5548605.811
 10
389797.46
 20
5548606.317
  0
LWPOLYLINE
  5
19C
100
AcDbEntity
  8
01_PM_B_9_0_Gruenflaechen_oeff
100
AcDbPolyline
 62
7
 90
2
 70
0
 10
389802.185
 20
5548615.971
 10
389802.008
 20
5548617.008
  0
LWPOLYLINE
  5
19D
100
AcDbEntity
  8
01_PM_B_9_0_Gruenflaechen_oeff
100
AcDbPolyline
 62
7
 90
2
 70
0
 10
389793.74
 20
5548619.052
 10
389796.598
 20
5548617.757
  0
LWPOLYLINE
  5
19E
100
AcDbEntity
  8
01_PM_B_9_0_Gruenflaechen_oeff
100
AcDbPolyline
 62
7
 90
2
 70
0
 10
389798.63
 20
5548614.639
 10
389798.523
 20
5548613.415
  0
LWPOLYLINE
  5
19F
100
AcDbEntity
  8
01_PM_B_9_0_Gruenflaechen_oeff
100
AcDbPolyline
 62
7
 90
2
 70
0
 10
389786.525
 20
5548605.63
 10
389734.188
 20
5548584.363
  0
LWPOLYLINE
  5
1A0
100
AcDbEntity
  8
01_PM_B_9_0_Gruenflaechen_oeff
100
AcDbPolyline
 62
7
 90
2
 70
0
 10
389802.008
 20
5548617.008
 10
389801.735
 20
5548617.999
  0
LWPOLYLINE
  5
1A1
100
AcDbEntity
  8
01_PM_B_9_0_Gruenflaechen_oeff
100
AcDbPolyline
 62
7
 90
2
 70
0
 10
389795.556
 20
5548605.412
 10
389796.526
 20
5548605.811
  0
LWPOLYLINE
  5
1A2
100
AcDbEntity
  8
01_PM_B_9_0_Gruenflaechen_oeff
100
AcDbPolyline
 62
7
 90
2
 70
0
 10
389802.192
 20
5548613.78
 10
389802.248
 20
5548614.905
  0
LWPOLYLINE
  5
1A3
100
AcDbEntity
  8
01_PM_B_9_0_Gruenflaechen_oeff
100
AcDbPolyline
 62
7
 90
2
 70
0
 10
389798.523
 20
5548613.415
 10
389797.919
 20
5548611.806
  0
LWPOLYLINE
  5
1A4
100
AcDbEntity
  8
01_PM_B_9_0_Gruenflaechen_oeff
100
AcDbPolyline
 62
7
 90
2
 70
0
 10
389794.741
 20
5548609.13
 10
389791.113
 20
5548607.468
  0
LWPOLYLINE
  5
1A5
100
AcDbEntity
  8
01_PM_B_9_0_Gruenflaechen_oeff
100
AcDbPolyline
 62
7
 90
2
 70
0
 10
389799.764
 20
5548608.255
 10
389800.456
 20
5548609.139
  0
LWPOLYLINE
  5
1A6
100
AcDbEntity
  8
01_PM_B_9_0_Gruenflaechen_oeff
100
AcDbPolyline
 62
7
 90
2
 70
0
 10
389754.968
 20
5548647.778
 10
389754.963
 20
5548647.78
  0
LWPOLYLINE
  5
1A7
100
AcDbEntity
  8
01_PM_B_9_0_Gruenflaechen_oeff
100
AcDbPolyline
 62
7
 90
2
 70
0
 10
389796.641
 20
5548610.266
 10
389794.741
 20
5548609.13
  0
LWPOLYLINE
  5
1A8
100
AcDbEntity
  8
01_PM_B_9_0_Gruenflaechen_oeff
100
AcDbPolyline
 62
7
 90
2
 70
0
 10
389800.232
 20
5548620.854
 10
389799.688
 20
5548621.52
  0
LWPOLYLINE
  5
1A9
100
AcDbEntity
  8
01_PM_B_3_6_Grundstuecksgrenze
100
AcDbPolyline
 62
230
 90
2
 70
0
 10
389646.568
 20
5548547.403
 10
389719.098
 20
5548572.326
  0
LWPOLYLINE
  5
1AA
100
AcDbEntity
  8
01_PM_B_3_6_Grundstuecksgrenze
100
AcDbPolyline
 62
230
 90
2
 70
0
 10
389755.142
 20
5548504.349
 10
389841.367
 20
5548533.979
  0
LWPOLYLINE
  5
1AB
100
AcDbEntity
  8
01_PM_B_3_6_Grundstuecksgrenze
100
AcDbPolyline
 62
230
 90
2
 70
0
 10
389773.762
 20
5548456.292
 10
389858.216
 20
5548485.314
  0
LWPOLYLINE
  5
1AC
100
AcDbEntity
  8
01_PM_B_3_6_Grundstuecksgrenze
100
AcDbPolyline
 62
230
 90
2
 70
0
 10
389742.004
 20
5548538.26
 10
389828.511
 20
5548567.987
  0
LWPOLYLINE
  5
1AD
100
AcDbEntity
  8
01_PM_B_3_6_Grundstuecksgrenze
100
AcDbPolyline
 62
230
 90
2
 70
0
 10
389853.942
 20
5548388.899
 10
389836.44
 20
5548433.736
  0
LWPOLYLINE
  5
1AE
100
AcDbEntity
  8
01_PM_B_3_6_Grundstuecksgrenze
100
AcDbPolyline
 62
230
 90
2
 70
0
 10
389822.675
 20
5548374.121
 10
389805.174
 20
5548418.959
  0
LWPOLYLINE
  5
1AF
100
AcDbEntity
  8
01_PM_B_3_6_Grundstuecksgrenze
100
AcDbPolyline
 62
230
 90
2
 70
0
 10
389787.081
 20
5548275.626
 10
389742.64
 20
5548389.403
  0
LWPOLYLINE
  5
1B0
100
AcDbEntity
  8
01_PM_B_3_6_Grundstuecksgrenze
100
AcDbPolyline
 62
230
 90
2
 70
0
 10
389727.616
 20
5548575.253
 10
389787.836
 20
5548419.827
  0
LWPOLYLINE
  5
1B1
100
AcDbEntity
  8
01_PM_B_3_6_Grundstuecksgrenze
100
AcDbPolyline
 62
230
 90
2
 70
0
 10
389791.408
 20
5548359.434
 10
389773.907
 20
5548404.181
  0
LWPOLYLINE
  5
1B2
100
AcDbEntity
  8
01_PM_B_3_6_Grundstuecksgrenze
100
AcDbPolyline
 62
230
 90
2
 70
0
 10
389729.435
 20
5548330.233
 10
389886.269
 20
5548404.131
  0
TEXT
  5
1B3
100
AcDbEntity
  8
01_AXR_S_V_T_TSHauptpunkte_3
100
AcDbText
 62
7
 10
389881.508
 20
5548439.251
 40
0.959999978542328
 41
1
 72
2
 11
389881.508
 21
5548439.251
  1
HP 3
100
AcDbText
 73
1
  0
TEXT
  5
1B4
100
AcDbEntity
  8
01_AXR_S_V_T_TSHauptpunkte_3
100
AcDbText
 62
7
 10
389930.129
 20
5548301.244
 40
0.959999978542328
 41
1
 72
2
 11
389930.129
 21
5548301.244
  1
 ; HP 1
100
AcDbText
 73
1
  0
TEXT
  5
1B5
100
AcDbEntity
  8
01_AXR_S_V_T_TSHauptpunkte_3
100
AcDbText
 62
7
 10
389821.436
 20
5548605.276
 40
0.959999978542328
 41
1
 72
2
 11
389821.436
 21
5548605.276
  1
TS 7
100
AcDbText
 73
1
  0
TEXT
  5
1B6
100
AcDbEntity
  8
01_AXR_S_V_T_TSHauptpunkte_3
100
AcDbText
 62
7
 10
389803.55
 20
5548623.367
 40
0.959999978542328
 41
1
 72
2
 11
389803.55
 21
5548623.367
  1
TS 9
100
AcDbText
 73
1
  0
TEXT
  5
1B7
100
AcDbEntity
  8
01_AXR_S_V_T_TSHauptpunkte_3
100
AcDbText
 62
7
 10
389798.617
 20
5548626.79
 40
0.959999978542328
 41
1
 72
2
 11
389798.617
 21
5548626.79
  1
 ; HP 13
100
AcDbText
 73
1
  0
TEXT
  5
1B8
100
AcDbEntity
  8
01_AXR_S_V_T_TSHauptpunkte_3
100
AcDbText
 62
7
 10
389930.129
 20
5548301.244
 40
0.959999978542328
 41
1
 72
2
 11
389930.129
 21
5548301.244
  1
TS 1
100
AcDbText
 73
1
  0
TEXT
  5
1B9
100
AcDbEntity
  8
01_AXR_S_V_T_TSHauptpunkte_3
100
AcDbText
 62
7
 10
389861.396
 20
5548506.434
 40
0.959999978542328
 41
1
 72
2
 11
389861.396
 21
5548506.434
  1
HP 4
100
AcDbText
 73
1
  0
TEXT
  5
1BA
100
AcDbEntity
  8
01_AXR_S_V_T_TSHauptpunkte_3
100
AcDbText
 62
7
 10
389824.978
 20
5548599.794
 40
0.959999978542328
 41
1
 72
2
 11
389824.978
 21
5548599.794
  1
TS 6
100
AcDbText
 73
1
  0
TEXT
  5
1BB
100
AcDbEntity
  8
01_AXR_S_V_T_TSHauptpunkte_3
100
AcDbText
 62
7
 10
389821.436
 20
5548605.276
 40
0.959999978542328
 41
1
 72
2
 11
389821.436
 21
5548605.276
  1
 ; HP 10
100
AcDbText
 73
1
  0
TEXT
  5
1BC
100
AcDbEntity
  8
01_AXR_S_V_T_TSHauptpunkte_3
100
AcDbText
 62
7
 10
389811.12
 20
5548616.997
 40
0.959999978542328
 41
1
 72
2
 11
389811.12
 21
5548616.997
  1
 ; HP 11
100
AcDbText
 73
1
  0
TEXT
  5
1BD
100
AcDbEntity
  8
01_AXR_S_V_T_TSHauptpunkte_3
100
AcDbText
 62
7
 10
389881.646
 20
5548438.791
 40
0.959999978542328
 41
1
 72
2
 11
389881.646
 21
5548438.791
  1
TS 2
100
AcDbText
 73
1
  0
TEXT
  5
1BE
100
AcDbEntity
  8
01_AXR_S_V_T_TSHauptpunkte_3
100
AcDbText
 62
7
 10
389827.438
 20
5548594.868
 40
0.959999978542328
 41
1
 72
2
 11
389827.438
 21
5548594.868
  1
TS 5
100
AcDbText
 73
1
  0
TEXT
  5
1BF
100
AcDbEntity
  8
01_AXR_S_V_T_TSHauptpunkte_3
100
AcDbText
 62
7
 10
389798.617
 20
5548626.79
 40
0.959999978542328
 41
1
 72
2
 11
389798.617
 21
5548626.79
  1
TS 10
100
AcDbText
 73
1
  0
TEXT
  5
1C0
100
AcDbEntity
  8
01_AXR_S_V_T_TSHauptpunkte_3
100
AcDbText
 62
7
 10
389860.335
 20
5548509.572
 40
0.959999978542328
 41
1
 72
2
 11
389860.335
 21
5548509.572
  1
HP 5
100
AcDbText
 73
1
  0
TEXT
  5
1C1
100
AcDbEntity
  8
01_AXR_S_V_T_TSHauptpunkte_3
100
AcDbText
 62
7
 10
389779.013
 20
5548638.034
 40
0.959999978542328
 41
1
 72
2
 11
389779.013
 21
5548638.034
  1
 ; HP 14
100
AcDbText
 73
1
  0
TEXT
  5
1C2
100
AcDbEntity
  8
01_AXR_S_V_T_TSHauptpunkte_3
100
AcDbText
 62
7
 10
389824.978
 20
5548599.794
 40
0.959999978542328
 41
1
 72
2
 11
389824.978
 21
5548599.794
  1
 ; HP 9
100
AcDbText
 73
1
  0
TEXT
  5
1C3
100
AcDbEntity
  8
01_AXR_S_V_T_TSHauptpunkte_3
100
AcDbText
 62
7
 10
389828.867
 20
5548591.732
 40
0.959999978542328
 41
1
 72
2
 11
389828.867
 21
5548591.732
  1
HP 7
100
AcDbText
 73
1
  0
TEXT
  5
1C4
100
AcDbEntity
  8
01_AXR_S_V_T_TSHauptpunkte_3
100
AcDbText
 62
7
 10
389811.12
 20
5548616.997
 40
0.959999978542328
 41
1
 72
2
 11
389811.12
 21
5548616.997
  1
TS 8
100
AcDbText
 73
1
  0
TEXT
  5
1C5
100
AcDbEntity
  8
01_AXR_S_V_T_TSHauptpunkte_3
100
AcDbText
 62
7
 10
389831.312
 20
5548586.366
 40
0.959999978542328
 41
1
 72
2
 11
389831.312
 21
5548586.366
  1
TS 4
100
AcDbText
 73
1
  0
TEXT
  5
1C6
100
AcDbEntity
  8
01_AXR_S_V_T_TSHauptpunkte_3
100
AcDbText
 62
7
 10
389860.921
 20
5548508.022
 40
0.959999978542328
 41
1
 72
2
 11
389860.921
 21
5548508.022
  1
TS 3
100
AcDbText
 73
1
  0
TEXT
  5
1C7
100
AcDbEntity
  8
01_AXR_S_V_T_TSHauptpunkte_3
100
AcDbText
 62
7
 10
389833.397
 20
5548580.85
 40
0.959999978542328
 41
1
 72
2
 11
389833.397
 21
5548580.85
  1
HP 6
100
AcDbText
 73
1
  0
TEXT
  5
1C8
100
AcDbEntity
  8
01_AXR_S_V_T_TSHauptpunkte_3
100
AcDbText
 62
7
 10
389779.013
 20
5548638.034
 40
0.959999978542328
 41
1
 72
2
 11
389779.013
 21
5548638.034
  1
TS 11
100
AcDbText
 73
1
  0
TEXT
  5
1C9
100
AcDbEntity
  8
01_AXR_S_V_T_TSHauptpunkte_3
100
AcDbText
 62
7
 10
389825.898
 20
5548597.952
 40
0.959999978542328
 41
1
 72
2
 11
389825.898
 21
5548597.952
  1
HP 8
100
AcDbText
 73
1
  0
TEXT
  5
1CA
100
AcDbEntity
  8
01_AXR_S_V_T_TSHauptpunkte_3
100
AcDbText
 62
7
 10
389803.55
 20
5548623.367
 40
0.959999978542328
 41
1
 72
2
 11
389803.55
 21
5548623.367
  1
 ; HP 12
100
AcDbText
 73
1
  0
TEXT
  5
1CB
100
AcDbEntity
  8
01_AXR_S_V_T_TSHauptpunkte_3
100
AcDbText
 62
7
 10
389881.805
 20
5548438.338
 40
0.959999978542328
 41
1
 72
2
 11
389881.805
 21
5548438.338
  1
HP 2
100
AcDbText
 73
1
  0
TEXT
  5
1CC
100
AcDbEntity
  8
01_AXR_S_V_T_B_Stationszeiger_
100
AcDbText
 62
7
 10
389868.727
 20
5548517.797
 40
0.685800015926361
 41
1
 50
21
 11
389868.727
 21
5548517.797
  1
0+225,000m
100
AcDbText
 73
1
  0
TEXT
  5
1CD
100
AcDbEntity
  8
01_AXR_S_V_T_B_Stationszeiger_
100
AcDbText
 62
7
 10
389859.889
 20
5548541.183
 40
0.685800015926361
 41
1
 50
21
 11
389859.889
 21
5548541.183
  1
0+250,000m
100
AcDbText
 73
1
  0
TEXT
  5
1CE
100
AcDbEntity
  8
01_AXR_S_V_T_B_Stationszeiger_
100
AcDbText
 62
7
 10
389784.646
 20
5548647.189
 40
0.685800015926361
 41
1
 50
60
 11
389784.646
 21
5548647.189
  1
0+377,341m
100
AcDbText
 73
1
  0
TEXT
  5
1CF
100
AcDbEntity
  8
01_AXR_S_V_T_B_Stationszeiger_
100
AcDbText
 62
7
 10
389883.748
 20
5548469.308
 40
0.685800015926361
 41
1
 50
17
 11
389883.748
 21
5548469.308
  1
0+175,000m
100
AcDbText
 73
1
  0
TEXT
  5
1D0
100
AcDbEntity
  8
01_AXR_S_V_T_B_Stationszeiger_
100
AcDbText
 62
7
 10
389800.606
 20
5548638.035
 40
0.685800015926361
 41
1
 50
60
 11
389800.606
 21
5548638.035
  1
0+358,941m
100
AcDbText
 73
1
  0
TEXT
  5
1D1
100
AcDbEntity
  8
01_AXR_S_V_T_B_Stationszeiger_
100
AcDbText
 62
7
 10
389876.579
 20
5548493.258
 40
0.685800015926361
 41
1
 50
17
 11
389876.579
 21
5548493.258
  1
0+200,000m
100
AcDbText
 73
1
  0
TEXT
  5
1D2
100
AcDbEntity
  8
01_AXR_S_V_T_B_Stationszeiger_
100
AcDbText
 62
7
 10
389851.051
 20
5548564.568
 40
0.685800015926361
 41
1
 50
21
 11
389851.051
 21
5548564.568
  1
0+275,000m
100
AcDbText
 73
1
  0
TEXT
  5
1D3
100
AcDbEntity
  8
01_AXR_S_V_T_B_Stationszeiger_
100
AcDbText
 62
7
 10
389786.676
 20
5548646.024
 40
0.685800015926361
 41
1
 50
60
 11
389786.676
 21
5548646.024
  1
0+375,000m
100
AcDbText
 73
1
  0
TEXT
  5
1D4
100
AcDbEntity
  8
01_AXR_S_V_T_B_Stationszeiger_
100
AcDbText
 62
7
 10
389828.6
 20
5548613.384
 40
0.685800015926361
 41
1
 50
41
 11
389828.6
 21
5548613.384
  1
0+325,000m
100
AcDbText
 73
1
  0
TEXT
  5
1D5
100
AcDbEntity
  8
01_AXR_S_V_T_B_Stationszeiger_
100
AcDbText
 62
7
 10
389808.924
 20
5548632.709
 40
0.685800015926361
 41
1
 50
55
 11
389808.924
 21
5548632.709
  1
0+350,000m
100
AcDbText
 73
1
  0
TEXT
  5
1D6
100
AcDbEntity
  8
01_AXR_S_V_T_B_Stationszeiger_
100
AcDbText
 62
7
 10
389842.088
 20
5548588.173
 40
0.685800015926361
 41
1
 50
22
 11
389842.088
 21
5548588.173
  1
0+300,000m
100
AcDbText
 73
1
  0
TEXT
  5
1D7
100
AcDbEntity
  8
01_AXR_S_V_T_B_Stationszeiger_
100
AcDbText
 62
7
 10
389888.059
 20
5548454.908
 40
0.685800015926361
 41
1
 50
17
 11
389888.059
 21
5548454.908
  1
0+159,968m
100
AcDbText
 73
1
  0
TEXT
  5
1D8
100
AcDbEntity
  8
01_AXR_S_V_T_B_Stationszeiger2
100
AcDbText
 62
7
 10
389764.789
 20
5548579.832
 40
0.685800015926361
 41
1
 50
289
 11
389764.789
 21
5548579.832
  1
0+050,000m
100
AcDbText
 73
1
  0
TEXT
  5
1D9
100
AcDbEntity
  8
01_AXR_S_V_T_B_Stationszeiger2
100
AcDbText
 62
7
 10
389788.432
 20
5548587.956
 40
0.685800015926361
 41
1
 50
289
 11
389788.432
 21
5548587.956
  1
0+075,000m
100
AcDbText
 73
1
  0
TEXT
  5
1DA
100
AcDbEntity
  8
01_AXR_S_V_T_B_Stationszeiger2
100
AcDbText
 62
7
 10
389814.548
 20
5548597.488
 40
0.685800015926361
 41
1
 50
304
 11
389814.548
 21
5548597.488
  1
0+100,000m
100
AcDbText
 73
1
  0
TEXT
  5
1DB
100
AcDbEntity
  8
01_AXR_S_V_T_B_Stationszeiger2
100
AcDbText
 62
7
 10
389741.146
 20
5548571.707
 40
0.685800015926361
 41
1
 50
289
 11
389741.146
 21
5548571.707
  1
0+025,000m
100
AcDbText
 73
1
  0
TEXT
  5
1DC
100
AcDbEntity
  8
01_AXR_S_V_T_B_Stationszeiger2
100
AcDbText
 62
7
 10
389722.545
 20
5548565.315
 40
0.685800015926361
 41
1
 50
289
 11
389722.545
 21
5548565.315
  1
0+005,331m
100
AcDbText
 73
1
  0
TEXT
  5
1DD
100
AcDbEntity
  8
01_AXR_S_V_T_B_Stationszeiger1
100
AcDbText
 62
7
 10
389721.774
 20
5548372.763
 40
0.685800015926361
 41
1
 50
295
 11
389721.774
 21
5548372.763
  1
0+025,000m
100
AcDbText
 73
1
  0
TEXT
  5
1DE
100
AcDbEntity
  8
01_AXR_S_V_T_B_Stationszeiger1
100
AcDbText
 62
7
 10
389812.185
 20
5548415.493
 40
0.685800015926361
 41
1
 50
295
 11
389812.185
 21
5548415.493
  1
0+125,000m
100
AcDbText
 73
1
  0
TEXT
  5
1DF
100
AcDbEntity
  8
01_AXR_S_V_T_B_Stationszeiger1
100
AcDbText
 62
7
 10
389698.71
 20
5548362.193
 40
0.685800015926361
 41
1
 50
293
 11
389698.71
 21
5548362.193
  1
0+000,000m
100
AcDbText
 73
1
  0
TEXT
  5
1E0
100
AcDbEntity
  8
01_AXR_S_V_T_B_Stationszeiger1
100
AcDbText
 62
7
 10
389789.583
 20
5548404.811
 40
0.685800015926361
 41
1
 50
295
 11
389789.583
 21
5548404.811
  1
0+100,000m
100
AcDbText
 73
1
  0
TEXT
  5
1E1
100
AcDbEntity
  8
01_AXR_S_V_T_B_Stationszeiger1
100
AcDbText
 62
7
 10
389882.911
 20
5548448.92
 40
0.685800015926361
 41
1
 50
295
 11
389882.911
 21
5548448.92
  1
0+203,227m
100
AcDbText
 73
1
  0
TEXT
  5
1E2
100
AcDbEntity
  8
01_AXR_S_V_T_B_Stationszeiger1
100
AcDbText
 62
7
 10
389766.98
 20
5548394.128
 40
0.685800015926361
 41
1
 50
295
 11
389766.98
 21
5548394.128
  1
0+075,000m
100
AcDbText
 73
1
  0
TEXT
  5
1E3
100
AcDbEntity
  8
01_AXR_S_V_T_B_Stationszeiger1
100
AcDbText
 62
7
 10
389879.994
 20
5548447.541
 40
0.685800015926361
 41
1
 50
295
 11
389879.994
 21
5548447.541
  1
0+200,000m
100
AcDbText
 73
1
  0
TEXT
  5
1E4
100
AcDbEntity
  8
01_AXR_S_V_T_B_Stationszeiger1
100
AcDbText
 62
7
 10
389857.391
 20
5548436.858
 40
0.685800015926361
 41
1
 50
295
 11
389857.391
 21
5548436.858
  1
0+175,000m
100
AcDbText
 73
1
  0
TEXT
  5
1E5
100
AcDbEntity
  8
01_AXR_S_V_T_B_Stationszeiger1
100
AcDbText
 62
7
 10
389744.377
 20
5548383.446
 40
0.685800015926361
 41
1
 50
295
 11
389744.377
 21
5548383.446
  1
0+050,000m
100
AcDbText
 73
1
  0
TEXT
  5
1E6
100
AcDbEntity
  8
01_AXR_S_V_T_B_Stationszeiger1
100
AcDbText
 62
7
 10
389834.788
 20
5548426.176
 40
0.685800015926361
 41
1
 50
295
 11
389834.788
 21
5548426.176
  1
0+150,000m
100
AcDbText
 73
1
  0
TEXT
  5
1E7
100
AcDbEntity
  8
01_AXR_S_V_T_B_Querneigungszei
100
AcDbText
 62
1
 10
389858.157
 20
5548514.651
 40
0.685800015926361
 41
1
 50
16
 72
1
 11
389858.157
 21
5548514.651
  1
2,50%
100
AcDbText
 73
1
  0
TEXT
  5
1E8
100
AcDbEntity
  8
01_AXR_S_V_T_B_Querneigungszei
100
AcDbText
 62
1
 10
389832.081
 20
5548583.57
 40
0.685800015926361
 41
1
 50
17
 72
1
 11
389832.081
 21
5548583.57
  1
2,50%
100
AcDbText
 73
1
  0
TEXT
  5
1E9
100
AcDbEntity
  8
01_AXR_S_V_T_B_Querneigungszei
100
AcDbText
 62
1
 10
389763.704
 20
5548591.09
 40
0.685800015926361
 41
1
 50
293
 72
1
 11
389763.704
 21
5548591.09
  1
2,50%
100
AcDbText
 73
1
  0
TEXT
  5
1EA
100
AcDbEntity
  8
01_AXR_S_V_T_B_Querneigungszei
100
AcDbText
 62
1
 10
389732.528
 20
5548390.012
 40
0.685800015926361
 41
1
 50
300
 72
1
 11
389732.528
 21
5548390.012
  1
2,50%
100
AcDbText
 73
1
  0
TEXT
  5
1EB
100
AcDbEntity
  8
01_AXR_S_V_T_B_Querneigungszei
100
AcDbText
 62
1
 10
389847.785
 20
5548444.485
 40
0.685800015926361
 41
1
 50
300
 72
1
 11
389847.785
 21
5548444.485
  1
2,50%
100
AcDbText
 73
1
  0
TEXT
  5
1EC
100
AcDbEntity
  8
01_AXR_S_V_T_B_Hauptpunktzeige
100
AcDbText
 62
7
 10
389717.758
 20
5548562.348
 40
0.959999978542328
 41
1
 50
289
 11
389717.758
 21
5548562.348
  1
0+000,000m
100
AcDbText
 73
1
  0
TEXT
  5
1ED
100
AcDbEntity
  8
01_AXR_S_V_T_B_Hauptpunktzeige
100
AcDbText
 62
7
 10
389715.286
 20
5548567.05
 40
0.959999978542328
 41
1
 50
289
 11
389715.286
 21
5548567.05
  1
Achse= Stichstraße
100
AcDbText
 73
1
  0
TEXT
  5
1EE
100
AcDbEntity
  8
01_AXR_S_V_T_B_Hauptpunktzeige
100
AcDbText
 62
7
 10
389824.01
 20
5548611.935
 40
0.959999978542328
 41
1
 50
349
 11
389824.01
 21
5548611.935
  1
R= oo
100
AcDbText
 73
1
  0
TEXT
  5
1EF
100
AcDbEntity
  8
01_AXR_S_V_T_B_Hauptpunktzeige
100
AcDbText
 62
7
 10
389716.818
 20
5548567.576
 40
0.959999978542328
 41
1
 50
289
 11
389716.818
 21
5548567.576
  1
R= oo
100
AcDbText
 73
1
  0
TEXT
  5
1F0
100
AcDbEntity
  8
01_AXR_S_V_T_B_Hauptpunktzeige
100
AcDbText
 62
7
 10
389829.318
 20
5548611.714
 40
0.959999978542328
 41
1
 50
349
 11
389829.318
 21
5548611.714
  1
0+111,627m
100
AcDbText
 73
1
  0
TEXT
  5
1F1
100
AcDbEntity
  8
01_AXR_S_V_K_Symbole_3
100
AcDbText
 62
4
 10
389875.742
 20
5548456.773
 40
0.428400009870529
 41
1
 11
389875.742
 21
5548456.773
  1
Kreuzung_2
100
AcDbText
 73
1
  0
TEXT
  5
1F2
100
AcDbEntity
  8
01_AXR_S_V_K_Symbole_3
100
AcDbText
 62
4
 10
389814.87
 20
5548611.41
 40
0.428400009870529
 41
1
 11
389814.87
 21
5548611.41
  1
Kreuzung_3
100
AcDbText
 73
1
  0
TEXT
  5
1F3
100
AcDbEntity
  8
01_AXR_Default_3
100
AcDbText
 62
7
 10
389752.981
 20
5548584.477
 40
0.959999978542328
 41
1
 50
18
 11
389752.981
 21
5548584.477
  1
Stichstraße
100
AcDbText
 73
1
  0
TEXT
  5
1F4
100
AcDbEntity
  8
01_PM_S_Schrift025_3
100
AcDbText
 62
7
 10
389759.332
 20
5548655.849
 40
1.37160003185272
 41
1
 50
60
 11
389759.332
 21
5548655.849
  1
Ausbaugrenze LBM
100
AcDbText
 73
1
  0
TEXT
  5
1F5
100
AcDbEntity
  8
01_PM_S_Schrift025_3
100
AcDbText
 62
7
 10
389749.11
 20
5548653.359
 40
1.37160003185272
 41
1
 50
329
 11
389749.11
 21
5548653.359
  1
LBM
100
AcDbText
 73
1
  0
TEXT
  5
1F6
100
AcDbEntity
  8
01_PM_S_Schrift025_3
100
AcDbText
 62
7
 10
389797.387
 20
5548633.761
 40
1.37160003185272
 41
1
 50
60
 11
389797.387
 21
5548633.761
  1
Ausbaugrenze Zufahrt
100
AcDbText
 73
1
  0
TEXT
  5
1F7
100
AcDbEntity
  8
01_PM_S_Schrift025_3
100
AcDbText
 62
7
 10
389756.796
 20
5548648.658
 40
1.37160003185272
 41
1
 50
331
 11
389756.796
 21
5548648.658
  1
Ortsgemeinde
100
AcDbText
 73
1
  0
ENDSEC
  0
SECTION
  2
OBJECTS
  0
DICTIONARY
  5
 13
330
0
100
AcDbDictionary
281
     1
  3
ACAD_GROUP
350
 14
 3
ACAD_MLINESTYLE
350
 16
  3
ACAD_PLOTSETTINGS
350
 17
  3
ACAD_PLOTSTYLENAME
350
 18
  0
DICTIONARY
  5
 14
330
 13
100
AcDbDictionary
281
     1
  0
DICTIONARY
  5
 16
330
 13
100
AcDbDictionary
281
     1
  0
DICTIONARY
  5
 17
102
{ACAD_REACTORS
330
 13
102
}
330
 13
100
AcDbDictionary
281
     1
  0
ACDBDICTIONARYWDFLT
  5
 18
102
{ACAD_REACTORS
330
 13
102
}
330
 13
100
AcDbDictionary
281
     1
  3
Normal
350
 19
100
AcDbDictionaryWithDefault
340
 19
  0
ACDBPLACEHOLDER
  5
 19
102
{ACAD_REACTORS
330
 18
102
}
330
 18
  0
ENDSEC
  0
EOF
